Cifra Club

Até a Música Acabar

Emo

Cifrado: Principal (guitarra y guitarra eléctrica)
tono: A
E                        G
 A escolha que você não fez,
    A                    C
as coisas que pensou só uma vez
        B       A       E
e depois não lembrou mais.
                     G
Aquilo que era pra nós;
          A               C
levante a voz e corra atrás.

G      D           A C
Não existe explicação,
                G                 D         A
há mais de um milhão de coisas que a gente sente
     C
então tente.
 G                  A        
Escute alguém que te deixe melhor,
 C      
não cultive o pior,
D
não chore até a música acabar.
G                   A
E se alguém disser que foi em vão,
C
partir seu coração,
D
espere até o final da canção.

Solo
e|-----------------------
B|-8-0-7-0-5-0-3-0-1-0-1-      X2
G|----------------------0
D|-----------------------
A|-----------------------
E|-----------------------

E                        G
A folha que você não leu,
    A                    C
as lições que já se esqueceu,
        B       A       E
e as que ainda vai levar.
                     G
Aquilo que era só meu
          A 
que Deus me deu,
            C
eu vou buscar.

G      D           A     C
Não existe explicação,
                G                D         A
há mais de um milhão de coisas que a gente sente
     C
invente.
 G                  A        
Escute alguém que te deixe melhor,
 C      
não cultive o pior,
D
não chore até a música acabar.
G                   A
E se alguém disser que foi em vão,
C
partir seu coração,
D
espere até o final da canção.

Solo²
e|-----------------------
B|-8-0-7-0-5-0-3-0-1-0-1-      X2
G|----------------------0
D|-----------------------
A|-----------------------
E|-----------------------

e|----------------------------------------------------------------------------
B|-8-0-7-0-5-0-3-0-1-0-1--------------------------7/10-8-7-8-10---------------
G|----------------------3/7-9-7-9/11-12-11-9-7-5-7-------------12-11-9-7-5-4-2
D|---------------------------------------------------------------------------
A|----------------------------------------------------------------------------
E|----------------------------------------------------------------------------

e|------------------------------------------------------------
B|------------------------------------------------------------
G|------------------------------------------------------------
D|-5-5-5-5-5-5-5/7-5-4-4-4-4-4-4-4-4/7-9/7-3-3-3-3-3-2-2-2-2-2
A|------------------------------------------------------------
E|-3-3-3-3-3-3-3/5-3-2-2-2-2-2-2-2-2/5-7/5-1-1-1-1-1-0-0-0-0-0

Oitavas
e|----------------------------------------------------------------------------------
B|----------------------------------------------------------------------------------
G|----------------------------------------------------------------------------------
D|-12-12-12-12-12-12-12/14-12-11-11-11-11-11-11-11/14-16/14-10-10-10-10-10-9-9-9-9-9
A|----------------------------------------------------------------------------------
E|-10-10-10-10-10-10-10/12-10-9- 9- 9- 9- 9- 9- 9/12-14/12- 8- 8- 8- 8- 8- 7-7-7-7-7

G                       D               A
Escute alguém que te faça sentir feliz só de existir.
      C                              A
Não pense que esse é o final da canção.

 G                  A        
Escute alguém que te deixe melhor,
 C      
não cultive o pior,
D
não chore até a música acabar.
G                   A
E se alguém disser que foi em vão,
C
emende o coração,
D
espere até o final da canção.
00:00 / 00:00
Otros videos de esta canción
Repetir
Otros videos de esta canción
Composición de Emoponto
Colaboración y revisión:
  • Bruno Colombini
26 vistas
    • ½ Tono
    • A
    • Bb
    • B
    • C
    • Db
    • D
    • Eb
    • E
    • F
    • F#
    • G
    • Ab
  • Agregar a la lista

    0 comentarios

    Ver todos los comentarios

    ¿Lograste tocar?

    0 Tocaron 0 Aún no

    ¡Graba un video tocando Até a Música Acabar y envíanoslo!

    00:00 / 00:00
    OK