Cifra Club

Essa tal liberdade

Emo

Cifrado: Principal (guitarra y guitarra eléctrica)
tono: A
A                     C#m                    D
  O que é que eu vou fazer com essa tal liberdade
                   E                A
  Se estou na solidão pensando em você
                C#m                  D
  Eu nunca imaginei sentir tanta saudade
                  E                  A
  Meu coração não sabe como te esquecer
             C#m                D
  Eu andei errado, eu pisei na bola
                     E                A
  Troquei quem mais amava por uma ilusão
                C#m                D
  Mas a gente aprende a vida é uma escola
                   E                   A
  Não é assim que acaba uma grande paixão

(refrão 2x)
                C#m             D
  Quero te abraçar, quero te beijar
  E                 A
  Te desejo noite e dia
                C#m         D
  Quero me prender todo em você
    E                   A
  Você é tudo que eu queria

(solo)

E|------------------------------------------------------
B|-6-6-6-7--9-9-9-11-11-9-7---7-7-7-9-11-11-11-9-7-9----
G|------------------------------------------------------ (2x)
D|------------------------------------------------------
A|------------------------------------------------------
E|------------------------------------------------------

E|-8h9--9-9--9-8-8-6-----6-6~-----6-6-6----4-----4------
B|--------------------9--------4--------------7---------
G|------------------------------------------------------
D|------------------------------------------------------
A|------------------------------------------------------
E|------------------------------------------------------

E|-8h9--9-9--9-8-8-6-----6-6~-----6-6-6----4----6-------
B|--------------------9--------4--------------7---------
G|------------------------------------------------------
D|------------------------------------------------------
A|------------------------------------------------------
E|------------------------------------------------------

 A                     C#m                D
  O que é que eu vou fazer com esse fim de tarde
                       E                A
  Pra onde quer que eu olhe lembro de você
                   C#m            D
  Não sei se fico aqui, ou mudo de cidade
                  E                    A
  Sinceramente, amor, não sei o que fazer
             C#m             D
  Eu andei errado, eu pisei na bola
                     E                   A
  Não sei se era melhor cantar outra canção
                C#m                D
  Mas a gente aprende a vida é uma escola
                  E                 A
  Eu troco a liberdade pelo teu perdão ...

(refrão)
00:00 / 00:00
Otros videos de esta canción
Repetir
Otros videos de esta canción
Compositor no encontrado.
Colaboración y revisión:
  • Luis Sorte
125 vistas
    • ½ Tono
    • A
    • Bb
    • B
    • C
    • Db
    • D
    • Eb
    • E
    • F
    • F#
    • G
    • Ab
  • Agregar a la lista

    0 comentarios

    Ver todos los comentarios

    ¿Lograste tocar?

    0 Tocaron 0 Aún no

    ¡Graba un video tocando Essa tal liberdade y envíanoslo!

    00:00 / 00:00
    OK