Cifra Club

Radio

Emo

Cifrado: Principal (guitarra y guitarra eléctrica)
tono: A
(intro 4x) A5 D5 F#5 E5 

A5 D5 F#5 E5
Esperei, quase seis anos para poder ver.
Aquela musica que, eu fiz para você.
Tocar no rádio e na TV
Mas quando eu te liguei quase não acreditei

B5 D5 B5 D5 E5
Você não gostou disse que mudou demais
Como eu fui capaz.

A5 E5 B5 D5
De mudar todo o refrão pra entrar na televisão
E me vender pra rádio com essas rimas tipo

F#5 E5 D5 F#5 E5 D5 E5
Eu só queria uma canção
Pra te falar
Que eu não quero esperar por mais um verão

( A5 D5 F#5 E5 ) (2x)

A5 D5 F#5 E5
Expliquei
Que só pediram para ajustar
Alguns meros detalhes
Mudei a letra um pouco
Deixei de cantar rouco
Mas quando eu te liguei quase não acreditei

B5 D5 B5 D5 E5
Você não gostou disse que mudou demais
Como eu fui capaz

A5 E5 B5 D5
De mudar todo o refrão pra entrar na televisão
E me vender pra rádio com essas rimas tipo

F#5 E5 D5 F#5 E5 D5 E5
Não demore assim pra dizer que gosta de mim
E eu te ter enfim

A5 D5 F#5 E5 B5 D5 E5
Mas a rádio não tocou disse que é curta demais e não satisfaz

A5 D5 A/C# B5 E5

A5 D5 A/C# B5 E5
Tive que pôr mais um refrão
Pra garantir que iam tocar
E antes um solo bem padrão
Que já está pra começar

(solo)
E|------------------------------------------------|
B|------------------------------------------------|
G|------------------------------------------------|
D|-----------6-7-6---6-7-6---6-7-7/9--------------|
A|----4-5-5/7-----9-7-----9-7---------------------|
E|-5-7--------------------------------------------|

E|--------------------------------------------------------|
B|--------------------------------------------------------|
G|-----------------13-14-13-----13-14-13-----13-14-14/16--|
D|------11-12-12/14--------16-14--------16-14-------------|
A|-12-12--------------------------------------------------|
E|--------------------------------------------------------|

E|------------------------------------------------------------|
B|------------------------------------------------------------|
G|------------------------------------------------------------|
D|---9-11-9-11-7-9-11-9-7-------------------------------------|
A|----------------------9-9-7-7-------------------------------|
E|------------------------------------------------------------|

A5 E5 B5 D5
E mudar todo o refrão pra entrar na televisão
e me vender pra rádio com essas rimas tipo

F#5 E5 D5 F#5 E5 D5 E5
Eu só queria uma canção
Pra te falar
Que eu não quero esperar por mais um verão

A5 D5 F#5 E5 B5 D5 E5 A5
Mas a rádio não tocou disse que é clichè demais e não satisfaz.
00:00 / 00:00
Otros videos de esta canción
Repetir
Otros videos de esta canción
Composición de Emo
Colaboración y revisión:
27 vistas
    • ½ Tono
    • A
    • Bb
    • B
    • C
    • Db
    • D
    • Eb
    • E
    • F
    • F#
    • G
    • Ab
  • Agregar a la lista

    0 comentarios

    Ver todos los comentarios

    ¿Lograste tocar?

    1 Tocaron 0 Aún no

    ¡Graba un video tocando Radio y envíanoslo!

    00:00 / 00:00
    OK