Cifra Club

Vida Real

Emo

Cifrado: Principal (guitarra y guitarra eléctrica)
tono: G
Intro:

E|---------------------------------------|
B|---------------------------------------|
G|--16-16-16-16-16...--------------------| 
D|---------------------------------------| 
A|--14-14-14-14-14...--------------------|
E|---------------------------------------|

    (2 Vezes)
E|------------------------------------------------------------|
B|------------------------------------------------------------|
G|--4-4-8-8-6/8/9-9-8-8-6-6-8-8-4-4-9-9-8/9/11----------------| 
D|------------------------------------------------------------| 
A|--2-2-6-6-4/6/7-7-6-6-4-4-6-6-2-2-7-7-6/7/-9----------------|
E|------------------------------------------------------------|

(Bm,C#m,Em,F#m-C#m,F#m)
Mil maneiras de falar verdade
Quase sem mentir
E mil razões para dizer saudades
Mesmo sem sentir

(G#m,Am,Bm,F#m)
Se o que você dizer
Bater com o que eu quiser
Então será um caso perfeição
Você diz até que quer ser a mulher que me dê direção
Mas você não sabe...

(Bm,G#m,C#m,Em)
Descobri o teu jeito
De transparecer que tudo é natural
Percebi teu defeito
Foi não mais viver a vida real

(Repete Intro)

(Bm,C#m,Em,F#m-C#m,F#m)
Mil maneiras de pedir abraços
Mesmo sem querer
E mil razões para seguir meus passos
Antes de eu me mover

(G#m,Am,Bm,F#m)
Se o que você dizer
Bater com o que eu quiser
Então será um caso perfeição
Você diz até que quer ser a mulher que me dê direção
Mas você não sabe...

(Bm,G#m,C#m,Em)
Descobri o teu jeito
De transparecer que tudo é natural
Percebi teu defeito
Foi não mais viver a vida real



E|---------------------------------------|
B|---------------------------------------|
G|--16-16-16-16-16...--------------------| 
D|---------------------------------------| 
A|--14-14-14-14-14...--------------------|
E|---------------------------------------|
 
(Bm,Em,C#m,F#m)
Quando o disfarce acaba
Já não vou estar do mesmo modo
Que me conheceu
Já não sei

(G#m,Am,Bm,F#m) - Abafado*
Se o que você fizer
Bater com o que eu quiser
Então será um caso perfeição
Você diz até que quer ser a mulher que me dê direção
Mas você não sabe...

(Bm,G#m,C#m,Em)-2vezes
Descobri o teu jeito
De transparecer que tudo é natural
Percebi teu defeito
Foi não mais viver a vida real.
00:00 / 00:00
Otros videos de esta canción
Repetir
Otros videos de esta canción
Compositor no encontrado.
Colaboración y revisión:
  • Vinicius Pais
22 vistas
    • ½ Tono
    • A
    • Bb
    • B
    • C
    • Db
    • D
    • Eb
    • E
    • F
    • F#
    • G
    • Ab
  • Agregar a la lista

    0 comentarios

    Ver todos los comentarios

    ¿Lograste tocar?

    0 Tocaron 0 Aún no

    ¡Graba un video tocando Vida Real y envíanoslo!

    00:00 / 00:00
    OK