Cifra Club

Glory

Kamelot

Cifrado: Versão 2 (guitarra y guitarra eléctrica)
Selo Cifra Club: esta cifra foi revisada para atender aos critérios oficiais da nossa Equipe de Qualidade.
tono: Am
E|----------------0-----0----------------0--------------------------------|
B|--1-1-1-0---1-3---3---1--3-1-0--------1-1-------------------------------|
G|--2-2-2-1---2-----0---0------0-2-0---2-----2-2-2------------------------|
D|--2-2-2-2---2-----0----------0------2-----3-0-2-------------------------|
A|--0-0-0-----0---------3------------0------------------------------------|
E|--------0---------3----------3------------------------------------------|

E|-------------0------0---0-1----0-----------------------------(1)-(1)----|
B|--1-1-1-0---0-0-1-3---3-------1--1h3p1-0h1p0--------0----------(1)------|
G|--2-2-2-1--1----2-----0------0---------0-----2-0---0-0------------------|
D|--2-2-2-2-------2-----0----------------0----------3---3-----------------|
A|--0-0-0---2-----0-----------3-------------------------------------------|
E|--------0-------------3----------------3---------1-----1----------------|

[Part 1]
E|-------------0------0-----------0-----------0-----------------------------|
B|--1-1-1-0---0-0-1-3---0---0----1------0----1-1----------------------------|
G|--2-2-2-1--1----2-----0--0----0-----0-----2-----2-2-0---------------------|
D|--2-2-2-2-------2-----0-0----------------2-----3-0-2----------------------|
A|--0-0-0---2-----0-----------3-----------0---------------------------------|
E|--------0--------------3-----------3--------------------------------------|

E|-------------0------0-----------0-----------0---------------------------|
B|--1-1-1-0---0-0-1-3---0---0----1------3----1-1--------------------------|
G|--2-2-2-1--1----2-----0--0----0-----0-----2-----------------------------|
D|--2-2-2-2-------2-----0------------------------2------------------------|
A|--0-0-----2-----0-----------3-----------0-------------------------------|
E|--------0-------------3-----------3-------------------------------------|

E|-------------0------0-----------0-----------0---------------------------|
B|--1-1-1-0---0---1-3---0---0----1------0----1-1--------------------------|
G|--2-2-2-1--1----2-----0--0----0-----0-----2-----2-2-2-------------------|
D|--2-2-2-2-------2-----0------------------------3-0-2--------------------|
A|--0-0-0---2-----0-----------3-----------0-------------------------------|
E|--------0-------------3-----------3-------------------------------------|

E|-------------0------0-----------0-----------0---------------------------|
B|--1-1-1-0---0---1--1--0---0----1------0----1-1--------------------------|
G|--2-2-2-1--1----2-2---0--0----0-----0-----2---------[s| ilence]-----------|
D|--2-2-2-2-2-----2-----0-------------------------------------------------|
A|--0-0-0---------0-----------3-----------0-----0-------------------------|
E|--------0-------------3-----------3-------------------------------------|

[Chorus]
E|--------1-----1-------1---------0-----0-------0-------------------------|
B|------3---3-----3---3---3-----3---3-----3---3---3-----------------------|
G|----2-------2-----2---------0-------0-----0-----------------------------|
D|--0---------------------------------------------------------------------|
A|--------------------------1---------------------------------------------|
E|------------------------------------------------------------------------|

E|--------0-----0-------0---------0-----0-------0-------------------------|
B|------3---3-----3---3---3-----1---1-----1---1---1-----------------------|
G|----0-------0-----0---------2-------2-----2-----------------------------|
D|------------------------------------------------------------------------|
A|--3-----------------------0---------------------------------------------|
E|------------------------------------------------------------------------|

E|--------1-----1-------1---------0-----0-------0-------------------------|
B|------3---3-----3---3---3-----3---3-----3---3---3-----------------------|
G|----2-------2-----2---------0-------0-----0-----------------------------|
D|--0---------------------------------------------------------------------|
A|--------------------------1---------------------------------------------|
E|------------------------------------------------------------------------|

E|--------0-----0-------0-------------------------------------------------|
B|------3---3-----3---3---3-----------------------------------------------|
G|----0-------0-----0-------0~--------------------------------------------|
D|---------------------------------------------[pa| use]--------------------|
A|--3---------------------------------------------------------------------|
E|------------------------------------------------------------------------|

E|--------1-----1-------1---------1-----------0---------------------------|
B|------3---3-----3---3---3-----3---3-------3---3-------------------------|
G|----2-------2-----2---------2-------2---0-------0-----------------------|
D|--0-----------------------0---------------------------------------------|
A|------------------------------------------------------------------------|
E|--------------------------------------3---------------------------------|

E|--------0-----0-------0---------0---------------------------------------|
B|------3---3-----3---3---3-----3---3-------------------------------------|
G|----0-------0-----0---------0-------0-----------------------------------|
D|---------------------------------------3-2h3p2-0------------------------|
A|--3-----------------------3----------------------3-2--------------------|
E|-----------------------------------------------------3------------------|

[Solo]

E|-----------------5-8-7-5------------------7-8-10-8-7h8p7----------------|
B|-------------------------8-6-5---------------------------8-8/10---10----|
G|--4-5-7-5-4h5p4----------------5-5/7------------------------------------|
D|------------------------------------------------------------------------|
A|------------------------------------------------------------------------|
E|------------------------------------------------------------------------|

E|--7/8---10-8-7----------------------------------------------------------|
B|-------------------10-8-------------------------------------------------|
G|------------------------10-9-7----------------4-5-7-5-4h5p4-------------|
D|-------------------------------10-9-7-7/9---------------------5-5/7-----|
A|------------------------------------------------------------------------|
E|------------------------------------------------------------------------|
Otros videos de esta canción
    5 exhibiciones
      • ½ Tono
      • Am
      • Bbm
      • Bm
      • Cm
      • C#m
      • Dm
      • Ebm
      • Em
      • Fm
      • F#m
      • Gm
      • G#m
    • Agregar a la lista

    Afinación de cifrado

    Afinador online

      OK