Cifra Club

Here To Stay

Korn

Tablatura: Principal (guitarra)
Tom: C
Tuning : A D G C F A D 

Intro (Heavy distortion) Munky :
A-----0----1----01-01-01-012--
D-------------------------------------
G-------------------------------------
                       p.mp.m

Riff 2 (Distortion) Head & Munky : 
A-----0-----1------0--1--0--1--0--1---0-1-2
D-----2-----3------2--3--2--3--2--3---2-3-4
G-----2-----3------2--3--2--3--2--3---2-3-4
                              p.m~~~~      
    2nd Part :
A------5--------6----5--6--5--6--5-----------------
D------7--------8----7--8--7--8--7--------------5--
G------7--------8----7--8--7--8--7--------------7--
C-----------------------------------------------7--

A------5--------6----5--6--5--6--5-----------------
D------7--------8----7--8--7--8--7--------------4--
G------7--------8----7--8--7--8--7--------------6--
C-----------------------------------------------6--
        "This time I'm taking it away......"

Pre-Verse:
A----------------2----0---2-3---2-3---2-3--------------2----0---2-3---2-3---2-3--
D------3---------4----2---4-5---4-5---4-5----------3---4----2---4-5---4-5---4-5--
G------5---------4----2---4-5---4-5---4-5----------5---4----2---4-5---4-5---4-5--
C------5-------------------------------------------------5-----------------------
        "This pain is elevating......"

Chorus Riff :
1st Guitar (Munky) Distortion

A-----0--------3-----------3----5-----1---0--
D-----2--------5-----3-----5----7-----3---2--
G-----2--------5-----5-----5----7-----3---2--
C--------------------5-----------------------

2nd Guitar (Head) Maybe a Phaser

G-------------------------19-----------21----23------------------------------
C---21-----------19--------------------------------21------19--------16--17--
F----------------------------------------------------------------------------

Bridge (Head) Palm Mute :
A------------------0-0----0----0-0-0-0-----
D------------------------7-----------------
G------------------------------------------

A------------------0-0----0----0--0--0-----
D------------------------7-----------------
G------------------------------------------
       "I'm here to stay......."

Munly :
C-----14-------12------------------------------------------14--------12-----------9--10--
F-------------------------------12-----------14---16-------------------------------------
A----------------------------------------------------------------------------------------
      
             "Bring it down !!"   (Both guitars)

A------------------0-0----0----0-0-0-0-----------0/1/2/3/4---
D------------------------7-----------------------------------
G------------------------------------------------------------

A------------------0-0----0----0--0--0------------0/1/2/3/4--
D------------------------7-----------------------------------
G------------------------------------------------------------

Go back to Pre-Verse.......
reproducciones 250
Acordes para:

    0 comentarios

    mostrar más comentarios

    ¿Conseguiste tocar?

    1 tocaron 0 aún no

    ¡Graba un vídeo tocando Here To Stay y envianoslo!

    00:00 / 00:00
    outros vídeos desta música
    repetir qualidade Automático
    Outros vídeos desta música
    00:00 / 00:00
    Automático
    OK