Cifra Club

Wish You Were Here

Pink Floyd

Tablatura: Original (guitarra)
reproducciones 1.013
Tono: G
Intro:

E|--------0----3-3-3-3-3---3-0-----3-3-3-3--------------------|
B|------3------3-3-3-3-3-------3---3-3-3-3--------------------|
G|--2----------0-0-0-0-0---0-------0-0-0-0--------------------|
D|------0-2--2-2-2-2-2-2-2---2-0---0-0-0-0--------------------|
A|--0h2----------------------------------2--------------------|
E|-------------------------------3----------------------------|

E|----------0----3-3-3-3-3---3-0-----3-3-3-3------------------|
B|--------3------3-3-3-3-3-------3---3-3-3-3------------------|
G|-0--2----------0-0-0-0-0---0-------0-0-0-0------------------|
D|--------0-2--2-2-2-2-2-2-2---2-0---0-0-0-0------------------|
A|----0h2----------------------------------2------------------|
E|-3-------------------------------3--------------------------|

E|----------0----3-3-3-3-3---0-----------3-3-3-3--------------|
B|--------3------3-3-3-3-3-----3---------3-3-3-3--------------|
G|-0--2----------0-0-0-0-0--------0-2----2-2-2-2--------------|
D|--------0-2--2-2-2-2-2-2---2-0------------------------------|
A|----0h2-------------------------2-0--0----------------------|
E|-3----------------------------------------------------------|

E|---------0----3-3-3-3-3--0-----------3-3-3-3------------3-3-|
B|-------3------3-3-3-3-3----3---------3-3-3-3------------3-3-|
G|---2----------0-0-0-0-0--------0-2---2-2-2-2---2----2---0-0-|
D|-------0-2--2-2-2-2-2-2--2-0----------------------------0-0-|
A|-0-0h2-------------------------2-0--0--------0-0h2--0---2-2-|
E|------------------------------------------------------3-3-3-|


Sugestão: se quiser segurar um pouquinho a parte final da introdução

E|---------0----3-3-3-3-3--0-----------3-3-3-3------------3-3-3-3-3-3-3-3---|
B|-------3------3-3-3-3-3----3---------3-3-3-3------------3-3-3-3-3-3-3-3---|
G|---2----------0-0-0-0-0--------0-2---2-2-2-2---2----2---0-0-0-0-0-0-0-0---|
D|-------0-2--2-2-2-2-2-2--2-0----------------------------0-0-2-2-2-2-0-0---|
A|-0-0h2-------------------------2-0--0--------0-0h2--0---2-2-3-3-3-3-2-2---|
E|------------------------------------------------------3-3-3---------3-3---|

Solo da Introdução:

E|-------------------------------3/5-5/3------------|
B|------3--5---3-----------------3/5-5/3-3/5-5/3p0--|
G|-2h4-------4---4p2p0-------------------2/4-4/2p0--|
D|---------------------0-----0-0--------------------|
A|-----------------------1/2------------------------|
E|--------------------------------------------------|


E|---------------------------------------------------|
B|-3/5-5/3p0-----------------------------------------|
G|-2/4-4/2p0--4--------------------------------------|
D|------------5--------------------------------------|
A|---------------------------------------------------|
E|---------------------------------------------------|

E|---------------------------------------------------|
B|-------3---5-5b7r5p3---3--------3h5----------------|
G|-2h4-----4-----------4---2~-4b6-----4b6-2~---------|
D|---------------------------------------------------|
A|---------------------------------------------------|
E|---------------------------------------------------|

E|---------------------------------------------------|
B|-------3---5-5b7-7r5p3-5---------------------------|
G|-2h4-------------------2~-4b6r4-2------------------|
D|---------------------------------------------------|
A|---------------------------------------------------|
E|---------------------------------------------------|


C                         D
So, so you think you can tell
             Am                   G                           D
Heaven from hell, Blue skies from pain. Can you tell a green field
                  C                    Am                         G
From a cold steel rail, A smile from a veil? Do you think you can tell?
                    C                         D                   Am
Did they get you to trade, Your heroes for ghosts, Hot ashes for trees,
                G                             D              C
Hot air for a cool breeze, Cold comfort for change? Did you exchange
                      Am                          G
A walk on part in the war, For a lead role in a cage?


Solo:

*nesta parte David Gilmour solfeja o solo acompanhando o violão.
A base do solo é a introdução da música. 

E|-------------------10/12-10------------------------|
B|-10b12-12-12-10b12----------10b12-12r10------------|
G|---------------------------------------------------|
D|---------------------------------------------------|
A|---------------------------------------------------|
E|---------------------------------------------------|

E|---------------------------------------------------|
B|--10~-10b12r10p8-----------------------------------|
G|----------------11---7-----------------------------|
D|-------------------9---9---------------------------|
A|---------------------------------------------------|
E|---------------------------------------------------|

E|-------------10-10-10-10-------10-10---------------|
B|-------10b12-------------10b12---------------------|
G|-9-9-9---------------------------------------------|
D|---------------------------------------------------|
A|---------------------------------------------------|
E|---------------------------------------------------|

E|-10-10-10-10-10-10---------------------------------|
B|-------------------12r10p8-------------------------|
G|---------------------------9-----------------------|
D|---------------------------------------------------|
A|---------------------------------------------------|
E|---------------------------------------------------|

E|-------12------------------------------------------|
B|-12b14----14-12b14-14-14-14-10b12------------------|
G|---------------------------------------------------|
D|---------------------------------------------------|
A|---------------------------------------------------|
E|---------------------------------------------------|

E|-10-10-10-10---------------------------------------|
B|-------------12----8-10-10b12r10p8-10--------------|
G|-----------------9---------------------------------|
D|---------------------------------------------------|
A|---------------------------------------------------|
E|---------------------------------------------------|

E|-------14------------------------------------------|
B|-12b14----14r12p10-12------------------------------|
G|---------------------------------------------------|
D|---------------------------------------------------|
A|---------------------------------------------------|
E|----------------------------------------------------|

C                                D
How I wish, how I wish you were here,
           Am                                 G                 D
We're just two lost souls swimming in a fish bowl, Year after year,
                               C                                    Am
Running over the same old ground,  What have we found?  The same old fears,
               G
Wish you were here.

Solo final acompanhado da introdução:

E|---------------------------------------------------|
B|---------------------------------------------------|
G|---7---7-9---7---7----7-9--------------------------|
D|-9---9-----9---9---9-------------------------------|
A|---------------------------------------------------|
E|---------------------------------------------------|

E|---------------------------------------------------|
B|-10b12-10-8----------------------------------------|
G|------------9---7---7-9----------------------------|
D|--------------9---9-----9--------------------------|
A|---------------------------------------------------|
E|---------------------------------------------------|

E|-----------------10-12p10--------------------------|
B|---8---8-10-10b12---------12-10b12-12r10p8---12-12-|
G|-9---9-------------------------------------9-------|
D|---------------------------------------------------|
A|---------------------------------------------------|
E|---------------------------------------------------|

E|-------10-10-------10-10-------10-10---------------|
B|-10b12-------10b12-------10b12-------10-12-10------|
G|---------------------------------------------------|
D|---------------------------------------------------|
A|---------------------------------------------------|
E|---------------------------------------------------|

E|------12------------10---------10---------10-------|
B|12b14----14r12-8/12----8h10b12----8h10b12---8h10b12|
G|---------------------------------------------------|
D|---------------------------------------------------|
A|---------------------------------------------------|
E|---------------------------------------------------|

E|10-------------------------------------------------|
B|---12r10p8-----8---8---8----8---8-10-10-10p8-----8-|
G|-----------9-9---9---9----9---9--------------9-7---|
D|---------------------------------------------------|
A|---------------------------------------------------|
E|---------------------------------------------------|

Pra finalizar a música vá diminuindo o ritmo da introdução...

E|----------0--|
B|--------3-0--|
G|-0--2-----0--|
D|--------0-2--|
A|----0h2---2--|
E|-3--------0--|
Acordes para:
    Compositor: David Gilmour / Roger Waters Colaboración y revision:
    • Nicolas Vicente
    • Carlos Lopes

    0 comentarios

    mostrar más comentarios
    00:00 / 00:00
    outros vídeos desta música
    repetir qualidade Automático
    Outros vídeos desta música
    00:00 / 00:00
    Automático
    OK