Cifra Club

Wish You Were Here

Pink Floyd

Tablatura: Ukulele (guitarra)
Tom: C
[intro]

                                  Am (riff 1)
A|--------------0------0--------------|
E|------------3--------0----------------|
C|-----2h4------------0-----------------------|
G|----------------------2-----------------------l

                                     C (riff 2)
A|------0-3-0--------3--------------------|
E|----------------------0--------------------|
C|----------------------0--------------------|
G|---------------0-----0--------------|

                                    Am (riff 1*)
A|--------------0------0--------------|
E|------------3--------0----------------|
C|--0--2h4-----------0----------------------|
G|----------------------2-----------------------l

                                     C (riff 2)
A|------0-3-0--------3-----------------------|
E|----------------------0----------------------|
C|----------------------0--------------------|
G|---------------0-----0------------------|

                                    Am (riff 1*)
A|--------------0------0-------------|
E|------------3--------0---------------|
C|--0--2h4-----------0-----------------------|
G|----------------------2-----------------------l

                                    D (riff 3)
A|--0----------------0-----------|
E|--------0-----------2------------|
C|----------2---------2--------------------|
G|-----0--------------2--------------------l

                                    Am (riff 1)
A|--------------0------0-------------|
E|------------3--------0---------------|
C|-----2h4------------0-----------------------|
G|----------------------2-----------------------l

                                    D (riff 3)
A|--0----------------0-----------|
E|--------0-----------2------------|
C|----------2---------2--------------------|
G|-----0--------------2--------------------l

                                  C (riff 4)
A|-------------------3-------------|
E|------------3---0---------------|
C|-----2h4---------0-----------------------|
G|-------------------0-----------------------l

[Solo] Am  C  Am  C
          Am  D  Am  D
          C    C   C    C

A|--------------------------------------------------------3/5---5/3---------------------------------------------------|
E|---------3~----5---3----------------------------------3/5---5/3----3/5---5/3-----3/5---5/3p0--0------------|
C|---2/4-----------4------4p2~p0-----2/4---------------------------2/4---4/2-----2/4---4/2p0-0------------|
G|------------------------------------0---------0-0-------------------------------------------------------------------l

xA|-------------------------------------------------------------------------------------------------------------------3-|
xE|---------3---5----5b6--3---3------0h2--3/5-2--------------------3----5b6--3---3------2-2p0----------0-|
xC|---2/4----4---------------4----2~-----------------2~----------2/4----4----------4---2~-----------2-------0-|
xG|-------------------------------------------------------------------------------------------------------------------0-|

F                                     G
So, so you think you can tell
                        Dm                          C
Heaven from hell, blue skies from pain
                                G                                    F
Can you tell a green field from a cold steel rail?
                       Dm
A smile from a veil?
                                  C
Do you think you can tell?

                               F
Did they get you to trade
                           G
Your heroes for ghosts?
                         Dm
Hot ashes for trees?
                     C
Hot air for a cool breeze?
                             G
Cold comfort for change?
                F
Did you exchange
                                 Dm
A walk on part in the war
                                C
For a lead role in a cage?

[Solo] Am  C  Am  C
          Am  D  Am  D
          C    C   C    C

F                                                         G
How I wish, how I wish you were here
                 Dm                                                        C
We're just two lost souls swimming in a fish bowl
                       G                                                     F
year after year, running over the same old ground
                                                             Dm
What have we found? The same old fears
                         C
Wish you were here

[Solo] Am  C  Am  C
           Am  D  Am  D
           C    C   C    C
reproducciones 13
Acordes para:
    Composição: David Gilmour / Roger Waters Colaboración y revision:
    • Felipe Tenório

    0 comentarios

    mostrar más comentarios

    ¿Conseguiste tocar?

    0 tocaron 0 aún no

    ¡Graba un vídeo tocando Wish You Were Here y envianoslo!

    00:00 / 00:00
    outros vídeos desta música
    repetir qualidade Automático
    Outros vídeos desta música
    00:00 / 00:00
    Automático
    OK