Cifra Club

Mulher de Fases

Raimundos

Cifrado: Acustica (guitarra y guitarra eléctrica)
tono: G
[Intro] F#  B  F#  B

[Refrão]

F#5        B5           F#5
   Complicada e perfeitinha
   C#5         D#5
Você me apareceu
     G#5             B5
Era tudo que eu queria

Estrela da sorte
F#5           B5           F#5
   Quando a noite ela surgia
     C#5           D#5
Meu bem você cresceu
       G#5           B5
Meu namoro é na folhinha

Mulher de fases

E|----------------------------------------------------|
B|----------------------------------------------------|
G|----------------------------------------------------|
D|----------------------------------------------------|
A|--6---4-------4--6---4-------4----------------------|
E|----------6--------------6--------------------------|

E|----------------------------------------------------|
B|----------------------------------------------------|
G|----------------------------------------------------|
D|----------------------------------------------------|
A|--6---4-------4--6---4-------4----------------------|
E|----------6--------------6--------------------------|

( F#5  B5  C#5 ) 
( F#5  B5  C#5 ) 

E|----------------------------------------------------|
B|----------------------------------------------------|
G|----------------------------------------------------|
D|----------------------------------------------------|
A|--6---4-------4--6---4-------4----------------------|
E|----------6--------------6--------------------------|

E|----------------------------------------------------|
B|----------------------------------------------------|
G|----------------------------------------------------|
D|----------------------------------------------------|
A|--6---4-------4--6---4-------4----------------------|
E|----------6--------------6--------------------------|

[Primeira Parte]

F#5                 C#5
   Que mulher ruim
              B5         D#5
Jogou minhas coisas fora
                  G#5
Disse que em sua cama
           B5         F#5
Eu não deito mais não
               C#5
A casa é minha
          B5       D#5
Você que vá embora
                    G#5
Já pra saia da sua mãe
                    B5
E deixa meu colchão
                G#5
Ela é pró na arte
                  D#5
De pentelhar e aziar
             F#5
É campeã do mundo
B5
A raiva era tanta
        F#5
Que eu nem reparei
       C#5
Que a Lua diminuía
F#5         C#5           B5            D#5
   A doida    tá me beijando há horas
                     G#5
Disse que se for sem eu
            B5          F#5
Não quer viver mais não
              C#5                 B5         D#5
Me diz, Deus,    o que é que eu faço agora?
                     G#5
Se me olhando desse jeito
                  B5
Ela me tem na mão
             F#5
Meu filho aguenta
               C#5
Quem mandou você gostar

Dessa mulher de fases

[Refrão]

F#5        B5           F#5
   Complicada e perfeitinha
   C#5         D#5
Você me apareceu
     G#5             B5
Era tudo que eu queria

Estrela da sorte
F#5           B5           F#5
   Quando a noite ela surgia
     C#5           D#5
Meu bem você cresceu
       G#5           B5
Meu namoro é na folhinha

Mulher de fases

( F#5  B5  C#5 ) 
( F#5  B5  C#5 ) 
( F#5  B5  C#5 ) 
( F#5  B5  C#5 ) 

[Segunda Parte]

 D#5
Põe fermento, põe as bombas

Qualquer coisa que aumente
     F#5
E a deixe bem maior que o Sol
 D#5
Pouca gente sabe que na noite
                            G#5
O frio é quente e arde e eu   acendi
B5              G#5
   Até sem luz dá pra te enxergar
      D#5                 F#5
O lençol fazendo congo-blue
   B5                 F#5
É pena, eu sei, a manhã já vai miar
      C#5
Se aguente, que lá vem chumbo quente

[Refrão]

F#5        B5           F#5
   Complicada e perfeitinha
   C#5         D#5
Você me apareceu
     G#5             B5
Era tudo que eu queria

Estrela da sorte
F#5           B5           F#5
   Quando a noite ela surgia
     C#5           D#5
Meu bem você cresceu
       G#5           B5
Meu namoro é na folhinha

Mulher de fases

( F#5  B5  C#5 ) 
( F#5  B5  C#5 ) 
( F#5  B5  C#5 ) 
( F#5  B5  C#5 ) 

E|--------------------------------------------------|
B|--------------------------------------------------|
G|--------------------------------------------------|
D|--------------------------------------------------|
A|--6---4-------4--6---4-------4--------------------|
E|----------6--------------6------------------------|

Complicada e perfeitinha
Você me apareceu
Era tudo que eu queria
Estrela da sorte
Quando a noite ela surgia
Meu bem você cresceu
Meu namoro é na folhinha
00:00 / 00:00
Otros videos de esta canción
Repetir
Otros videos de esta canción
Composición de Digão / Rodolfo
Colaboración y revisión:
897 vistas
  • Simplificar cifrado
    • ½ Tono
    • A
    • Bb
    • B
    • C
    • Db
    • D
    • Eb
    • E
    • F
    • F#
    • G
    • Ab
  • Agregar a la lista

    0 comentarios

    Ver todos los comentarios
    00:00 / 00:00
    Capítulos
    • Início
    • Tocando a Música
    • Dicas de Timbre
    • Acordes Introdução
    • Ensinando Introdução
    • Ensinando Introdução
    • Acordes Primeira Parte
    • Tocando Primeira Parte
    • Ensinando Ritmo Primeira Parte
    • Tocando Refrão
    • Ensinando Ritmo Refrão
    • Tocando Riff 1
    • Ensinando Riff 1
    • Tocando Segunda Parte
    • Ensinando Ritmo Segunda Parte
    • Tocando Riff 2
    • Ensinando Riff 2
    • Encerramento
    OK