Cifra Club

Gitá

Raul Seixas

Tab de bajo: Completa-contrabaixo
(intro)

G|------------------------------------------------------------|
D|----------------------7h9-7-7-7h9---------------------------|
A|---7-7----7-7-----5-5-------------7-7-----7-7----7-7-----7-7|
E|------7h9-----7h9---------------------7h9----7h9-----7h9----|

Às vezes você me pergunta
G|---------------------------------------------------|
D|---------------------------------------------------|
A|-7-7-6-7-9-9---------------------------------------|
E|---------------------------------------------------|

Por que é que eu sou tão calado
G|---------------------------------------------------|
D|---------------------------------------------------|
A|-7-----------7-7-----------------------------------|
E|---9-7-7-7h9---------------------------------------|

Não falo de amor quase nada
G|---------------------------------------------------|
D|---------------------------------------------------|
A|-9-11-11-9h11--------------------------------------|
E|--------------9-9----------------------------------|

Nem fico sorrindo ao teu lado
G|---------------------------------------------------|
D|---------------------------------------------------|
A|-11-11-9-------------------------------------------|
E|---------11-9-7------------------------------------|

Você pensa em mim toda hora
Me come, me cospe, me deixa
Talvez você não entenda
Mas hoje eu vou lhe mostrar
G|---------------------------------------------------|
D|-------------99999---------------------------------|
A|-3-3-3-0-2-2/--------------------------------------|
E|---------------------------------------------------|

Eu sou a luz das estrelas
Eu sou a cor do luar
Eu sou as coisas da vida
G|---------------------------------------------------|
D|-7-7-7h9----11-9-----------------------------------|
A|---------7-------11-9------------------------------|
E|---------------------------------------------------|

Eu sou o medo de amar
G|---------------------------------------------------|
D|-------------14-14-14-14-14-14-14------------------|
A|-5-5-5h7-7-7/--------------------------------------|
E|---------------------------------------------------|

Eu sou o medo do fraco
A força da imaginação
O blefe do jogador
G|---------------------------------------------------|
D|-7-7-7h9----11-9-----------------------------------|
A|---------7-------11-9------------------------------|
E|---------------------------------------------------|

Eu sou, eu fui, eu vou (Gitâ gitâ gitâ gitâ gitâ)
G|---------------------------------------------------|
D|-----7h9-7-7--7h9----------------------------------|
A|-5-5--------------7-7-----7-7-----7-7--------------|
E|----------------------7h9-----7h9------------------|

Eu sou o seu sacrifício
A placa de contra-mão
O sangue no olhar do vampiro
G|---------------------------------------------------|
D|-7-7-7h9----11-9-----------------------------------|
A|---------7-------11-9------------------------------|
E|---------------------------------------------------|
E as juras de maldição
G|---------------------------------------------------|
D|-------------14-14-14-14-14-14-14------------------|
A|-5-5-5h7-7-7/--------------------------------------|
E|---------------------------------------------------|

Eu sou a vela que acende
Eu sou a luz que se apaga
Eu sou a beira do abismo
G|---------------------------------------------------|
D|-7-7-7h9----11-9-----------------------------------|
A|---------7-------11-9------------------------------|
E|---------------------------------------------------|

Eu sou o tudo e o nada
G|---------------------------------------------------|
D|-----7h9-7-7--7h9----------------------------------|
A|-5-5--------------7-7-----7-7-----7-7--------------|
E|----------------------7h9-----7h9------------------|

(A 2a parte é idêntica, é só repetir os refrões na ordem!)
00:00 / 00:00
Otros videos de esta canción
Repetir
Otros videos de esta canción
Composición de Paulo Coelho / Raul Seixas
Colaboración y revisión:
  • MARCO LEITAO
38 exhibiciones
00:00 / 00:00
OK