Cifra Club

All out of love

Air Supply

Cifrado: Principal (guitarra y guitarra eléctrica)
tono: C
[Intro] C  G/B  F/A  F  G  C
 
       C                G/B                 F/A                     F             G
E|--------0------------------3-------------------1-----------------------------------|
B|----------1-------------------3-------------------1--------------------------------|
G|-----0------0-----------0------0-----------2------2-----------2------------4------|
D|---2-----------------0--------------------3-------------------3-----------5-------|
A|-3--------------3--2---------------2--0--------------------3-----------5-----------|
E|---------------------------------------------------------0-1-----------3-----------|
      C                   C
E|-------0-------------------0-------------------------------------------------------|
B|---------1-------------------1-----------------------------------------------------|
G|-----0-----0-----------0-----0-----------------------------------------------------|
D|---2-----------------2-------------------------------------------------------------|
A|-3-------------0--3----------------------------------------------------------------|
E|-----------------------------------------------------------------------------------|

     F/C                          C
I'm lying alone with my head on the phone
F/C                          C
thinking of you 'til it hurts
F/C                                            G/B
I know you're hurt too, but what else can we do
    F/A              F           G  
tormented and torn apart
   F/C                              C
I wish I could carry your smile in my heart
       F/C                                   C
For times when my life seems so low
    F/C                                         G/B
It would make me believe what tomorrow could bring
        F/A                             F           G
When today doesn't really know, Doesn't really know

    C                            G/B
I'm all out of love, I'm so lost without you
    Am                         F           G        
I know you were right, believing for so long
    C                               G/B
I'm all out of love, what am I without you?
   Am               F           G           C
I can't be too late to say that I was so wrong

  F/C                                       C
I want you to come back and carry me home
  F/C                                   C
Away from these long, lonely nights
     F/C                                    G/B
I'm reaching for you. Are you feeling it too?
                Am              F           G  
Does the feeling seem oh, so right?
      F/C                                C
And what would you say if I called on you now
     F/C                              C
And said that I can't hold on?
        F/C                               G/B
There's no easy way, it gets harder each day
            Am                F           G  
Please love me or I'll be gone.  I'll be gone

    C                            G/B
I'm all out of love, I'm so lost without you
    Am                        F           G  
I know you were right, believing for so long
    C                               G/B
I'm all out of love, what am I without you?
   Am               F            G          C
I can't be too late to say that I was so wrong

       C      G/B       Am
E|--------------------0--------------------------------------------------------------|
B|-------1-------0----1--------------------------------------------------------------|
G|-----0-------0------2--------------------------------------------------------------|
D|---2-------0--------2--------------------------------------------------------------|
A|-3-------2----------0--------------------------------------------------------------|
E|-----------------------------------------------------------------------------------|

 Am      Em                   F     ( F  Em )
Oooo....What are you thinking of
Dm                               Am
What are you thinking of
Em                     F   ( F  Em )
What are you thinking of
Dm                       F  G  Am  B/G
What are you thinking of

    C                            G/B
I'm all out of love, I'm so lost without you
    Am                        F           G  
I know you were right, believing for so long
    C                               G/B
I'm all out of love, what am I without you?
   Am                 F            G       C
I can't be too late I know I  was so wrong

    C                            G/B
I'm all out of love, I'm so lost without you
    Am                      F              G
I know you were right, believing for so long
    C                               G/B
I'm all out of love, what am I without you?
   Am                    F            G      C
I can't be too late to say I  was so wrong
00:00 / 00:00
Otros videos de esta canción
Repetir
Otros videos de esta canción
Composición de Clive Davis / Graham Russell
14.373 exhibiciones
  • Simplificar cifrado
    • ½ Tono
    • A
    • Bb
    • B
    • C
    • Db
    • D
    • Eb
    • E
    • F
    • F#
    • G
    • Ab
  • Agregar a la lista
    00:00 / 00:00
    OK