Cifra Club

Aprenda

A Horse With No Name

America

Tablatura: Video_aula_completa (guitarra)
tono: Em
[Intro] Em  D6(9)/F# 
        Em  D6(9)/F# 

[Primeira Parte]

        Em                D6(9)/F#
On the first part of the journey
       Em                 D6(9)/F#
I was looking at all the life
             Em                  
There were plants and birds 
     D6(9)/F#
And rocks and things
           Em                 D6(9)/F#
There was sand and hills and rings
     Em                       
The first thing I met
        D6(9)/F#
Was a fly with a buzz
          Em          D6(9)/F#
And the sky with no clouds
     Em                    
The heat was hot 
          D6(9)/F#
And the ground was dry
        Em               D6(9)/F#
But the air was full of sound

[Refrão]

      Em                            
I've been through the desert 
      D6(9)/F#
On a horse with no name
         Em                    
It felt good to be out
        D6(9)/F#
Of the rain
        Em               
In the desert 
           D6(9)/F#
You can remember your name
             Em                   
'Cause there ain't no one
        D6(9)/F#
For to give you no pain

 Em
La la 
   D6(9)/F#
La-ah la la la 
       Em    
La la la 
    D6(9)/F#
La la 
 Em
La la 
   D6(9)/F#
La-ah la la la 
       Em    
La la la 
    D6(9)/F#
La la 

[Segunda Parte]

        Em             D6(9)/F#
After two days in the desert sun
     Em                D6(9)/F#
My skin began to turn red
         Em              D6(9)/F#
After three days in the desert fun
       Em                 D6(9)/F#
I was looking at a river bed
          Em                
And the story it told
      D6(9)/F#
Of a river that flowed
         Em                  D6(9)/F#
Made me sad to think it was dead

[Refrão]

               Em                            
You see, I've been through the desert 
      D6(9)/F#
On a horse with no name
         Em                    
It felt good to be out
        D6(9)/F#
Of the rain
        Em               
In the desert 
           D6(9)/F#
You can remember your name
             Em                   
'Cause there ain't no one
        D6(9)/F#
For to give you no pain

 Em
La la 
   D6(9)/F#
La-ah la la la 
       Em    
La la la 
    D6(9)/F#
La la 
 Em
La la 
   D6(9)/F#
La-ah la la la 
       Em    
La la la 
    D6(9)/F#
La la 

[Solo] Em  D6(9)/F# 
       Em  D6(9)/F# 
       Em  D6(9)/F# 
       Em  D6(9)/F# 

Parte 1 de 6

E|-0-0-----0---0---0-0----0-0----0-0---0-0---0---------|
B|-5-5-----7---7/8---8/10---10\7---7/8---8\5-5---------|
G|-----h7----------------------------------------------|
D|-----------------------------------------------------|
A|-----------------------------------------------------|
E|-----------------------------------------------------|

Parte 2 de 6

E|-0----0-0---0-0----0-0-----0-0---0---0---------------|
B|-5----7-7/8---8/10---10/12---12--10--12--------------|
G|---h7------------------------------------------------|
D|-----------------------------------------------------|
A|-----------------------------------------------------|
E|-----------------------------------------------------|

Parte 3 de 6

E|----0----0----0----0----0----0-----------------------|
B|-17---17---17---17---17---17-------------------------|
G|-----------------------------------------------------|
D|-----------------------------------------------------|
A|-----------------------------------------------------|
E|-----------------------------------------------------|

Parte 4 de 6

E|----0----0----0----0----0----0-----------------------|
B|-17---17---17---17---17---17-------------------------|
G|-----------------------------------------------------|
D|-----------------------------------------------------|
A|-----------------------------------------------------|
E|-----------------------------------------------------|

Parte 5 de 6

E|-0------0---0------0---0------0--0-----0-------------|
B|-15p14\-12--14p12\-10--12p10\-8--10p8\-7-------------|
G|-----------------------------------------------------|
D|-----------------------------------------------------|
A|-----------------------------------------------------|
E|-----------------------------------------------------|

Parte 6 de 6

E|-0----0--0----0--0----0--0----0----------------------|
B|-8p7\-5--7p5\-3--5p3\-2--3p2p-0----------------------|
G|-----------------------------------------------------|
D|-----------------------------------------------------|
A|-----------------------------------------------------|
E|-----------------------------------------------------|

[Terceira Parte]

       Em                 
After nine days
            D6(9)/F#
I let the horse run free
            Em                   
'Cause the desert
                D6(9)/F#
Had turned to sea
             Em                  
There were plants and birds 
      D6(9)/F#
And rocks and things
           Em                  
There was sand and hills 
      D6(9)/F#
And rings
    Em                           
The ocean is a desert 
           D6(9)/F#
With its life underground
       Em                D6(9)/F#
And a perfect disguise above
           Em            
Under the cities
         D6(9)/F#
Lies a heart made of ground
         Em                  D6(9)/F#
But the humans will give no love

[Refrão]

               Em                            
You see, I've been through the desert 
      D6(9)/F#
On a horse with no name
         Em                    
It felt good to be out
        D6(9)/F#
Of the rain
        Em               
In the desert 
           D6(9)/F#
You can remember your name
             Em                   
'Cause there ain't no one
        D6(9)/F#
For to give you no pain

 Em
La la 
   D6(9)/F#
La-ah la la la 
       Em    
La la la 
    D6(9)/F#
La la 
 Em
La la 
   D6(9)/F#
La-ah la la la 
       Em    
La la la 
    D6(9)/F#
La la 
 Em
La la 
   D6(9)/F#
La-ah la la la 
       Em    
La la la 
    D6(9)/F#
La la 
 Em
La la 
   D6(9)/F#
La-ah la la la 
       Em    
La la la 
    D6(9)/F#  Em
La la
Composição de Dewey Bunnell
Colaboración y revision:
  • Getúlio Vasconcelos
773 reproducciones
    • ½ Tono
    • Am
    • Bbm
    • Bm
    • Cm
    • C#m
    • Dm
    • Ebm
    • Em
    • Fm
    • F#m
    • Gm
    • G#m
  • Adicionar à lista

    0 comentarios

    Ver todos os comentários

    ¿Conseguiste tocar?

    6 Tocaram 2 Ainda não

    Grave um vídeo tocando A Horse With No Name e nos envie!

    00:00 / 00:00
    outros vídeos desta música
    repetir qualidade Automático
    Outros vídeos desta música
    00:00 / 00:00
    Automático
    Capítulos
    • Tocando a Música
    • Apresentação / Equipamentos
    • Acordes
    • Tocando Introdução / Primeira Parte
    • Ensinando Ritmo
    • Tocando Solo
    • Ensinando Solo
    • Ensinando Solo - Parte 1
    • Ensinando Solo - Parte 2
    • Ensinando Solo - Parte 3 e 4
    • Ensinando Solo - Parte 5 e 6
    • Encerramento
    OK