Cifra Club

O Céu É o Meu Lugar (part. DJ PV)

Casa Worship

Cifrado: Principal (guitarra y guitarra eléctrica)
tono: C
[Intro] F  G4  Am  C

[Primeira Parte]

F            G4      Am  C
Estou de passagem aqui
  F             G4    Am  C
E esse não é o meu lugar 
 F         G4         Am  C
Deus preparou pra mim

[Pré-Refrão]

         F  C
Um novo lar 
         Am  C 
Um novo lar

[Refrão]

   F        G4       Am  C
O céu é o  meu lugar
   F        G4       Am  C
O céu é o  meu lugar
   F        G4       Am  C
O céu é o  meu lugar

E é pra lá que eu vou
E é pra lá que eu vou

[Solo]

E|--5--3--5--0--------3--------------------------|
B|--------------3--5-----3--5--5--5--3--1--0-----|
G|--------------------------------------------2--|
D|-----------------------------------------------|
A|-----------------------------------------------|
E|-----------------------------------------------|

E|--5--3--5--0--------3-----3--------------------|
B|--------------3--5-----3-----3--5--5--5-----1--|
G|----------------------------------------0-2----|
D|-----------------------------------------------|
A|-----------------------------------------------|
E|-----------------------------------------------|
Composición de Davi Passamani
Colaboración y revisión:
  • Pedro Santos
  • Gabriel Silva
  • mateus silva
1.122 vistas
    • ½ Tono
    • A
    • Bb
    • B
    • C
    • Db
    • D
    • Eb
    • E
    • F
    • F#
    • G
    • Ab
  • Agregar a la lista

    0 comentarios

    Ver todos los comentarios

    ¿Lograste tocar?

    5 Tocaron 4 Aún no

    ¡Graba un video tocando O Céu É o Meu Lugar (part. DJ PV) y envíanoslo!

    00:00 / 00:00
    Otros videos de esta canción
    Repetir Calidad Automático
    Otros videos de esta canción
    00:00 / 00:00
    Automático
    OK