Cifra Club

Ce Soir Je Ne Dors Pas

France Gall

Cifrado: Principal (guitarra y guitarra eléctrica)
Selo Cifra Club: esta cifra foi revisada para atender aos critérios oficiais da nossa Equipe de Qualidade.
tono: Am
[Intro]
   Am           E            G             D
E|--------------0------------3-------------2---3p2-----|
B|-------0h1---------------------0h1p0-3-----------3---|
G|-----2------------1p0-1------0---------0---2-------2-|
D|---2-------2----2--------2---------------0-----------|
A|-0---------------------------------------------------|
E|--------------0------------3-------------------------|
   F             C           E             Asus2  Am     Am
E|-----------------------------------------------------|
B|-1-----0h1-----------0h1---------0-------------0-1---|
G|-----2-----2-------0-----0-----1---1---------2-----2-|
D|---3---------3---2-----------2-------2-----2---------|
A|---------------3-----------------------2-0-----------|
E|-1-------------------------0-------------------------|
                                                           Ce soir...


[Verse 1]
Am                E
  Ce soir,  je ne dors pas
G                          D
  Comme la toute toute  première fois
F                       C
  Où tu es venu con-tre moi...
    E                    Am
Où j'avais peur   de toi-a


[Verse 2]
Am                E
  Ce soir,  je ne dors pas
G                          D
  Comme la toute toute  première fois
F                        C
  Où tu dormais dans mes bras...
      E                          Am
Où je prononçais ton nom tout ba-as


[Chorus]
D          Dm                      Am
Quand   j'étais enfant,   mon prince charmant
             B7         E7
Était si différent  de toi...
D          Dm                      Am
Quand   j'étais enfant,  mon prince charmant
             B7              E*  E/D* E/C* E/B*
Était bien  autrement,   pourquoi...


[Verse 3]
Am                E
  Ce soir,  je ne dors pas
G                          D
  C'est la toute toute  première fois
F                        C
  Que je te sais loin de moi...
E                         Am
Et le vide n'en finit pas-a


[Instrumental]
| Am | E  | G  | D  |
| F  | C  | E  | Am |


[Chorus]
D          Dm                      Am
Quand   j'étais enfant,   mon prince charmant
             B7         E7
Était si différent  de toi...
D          Dm                      Am
Quand   j'étais enfant,   mon prince charmant
             B7              E*  E/D* E/C* E/B*
Était bien  autrement,   pourquoi...


[Outro]
Am                E
  Ce soir,  je ne dors pas
G                          D
  Comme la toute toute  première fois
F                           C
  Où je comprends que c'est toi...
      E                          Am     Am
Ce garçon   que je n'attendais   pas
Otros videos de esta canción
    13 exhibiciones
      • ½ Tono
      • Am
      • Bbm
      • Bm
      • Cm
      • C#m
      • Dm
      • Ebm
      • Em
      • Fm
      • F#m
      • Gm
      • G#m
    • Agregar a la lista

    Afinação da cifra

    Afinador online

      Ops (: Contenido disponible solo en portugués.
      OK