Dementes Cobardes

Hamlet

tono: D
Riff 1
E|--------------------|
B|--------------------|
G|--------------------|
D|-----------5-7-8----|
A|-5/7-7-7-7-3-5-6----|
E|-3/5-5-5-5----------|



Riff 2
(5a y 6a cuerda)
A|-----------------------6-|
E|---0-0--0-0--0-0--0-0--4-|

(Nazi cabron me cago yo en tu puta madre...)


Riff 3
Este no me lo se muy bien, me parece que es asi:
E|----------------------------|
B|----------------------------|
G|----------------------------|
D|---------------7-7-7--5-5-5-|
A|-7-7-7--5-5-5--5-5-5--3-3-3-|
E|-5-5-5--3-3-3---------------|
Página 1 / 1

Letras y titulo
Acordes y artista

restablecer los ajustes
OK