Cifra Club

Seperate Ways Solo

Journey

Cifrado: Principal (guitarra y guitarra eléctrica)
tono: C

Album:          Time3
Tempo:          125
Transcribed By; Daniel Kinder
My Email:       *
Last edit:      December 8, 2004
Parts:          Solo, Tab Explanation
Missing:        Check out my other tab for the rest of the song.
Notes:          The solo is correct; to get the timing you'll have to 
                listen to the song.

Solo

|---------12------------14---15--------------12-----------14---15------|
|---12---------------------------------12------------------------------|
|----------------------------------------------------------------------|
|----------------------------------------------------------------------|
|----------------------------------------------------------------------|
|----------------------------------------------------------------------|

|---15b16r---12---------14---15-------17-16-17\16-17----15-14---15-----|
|-------------------------------------------------------------------17-|
|----------------------------------------------------------------------|
|----------------------------------------------------------------------|
|----------------------------------------------------------------------|
|----------------------------------------------------------------------|

|------------------------------12----------14---15----------12-----14--|
|-13--------------------12----------------------------12---------------|
|-----14-11b(1/2)r-----------------------------------------------------|
|----------------------------------------------------------------------|
|----------------------------------------------------------------------|
|----------------------------------------------------------------------|

|-15-15b16r-12\7/14-15-17-16-14-15--17-15-14-15/19-19-19-19-19-19-19-19|
|----------------------------------------------------------------------|
|----------------------------------------------------------------------|
|----------------------------------------------------------------------|
|----------------------------------------------------------------------|
|----------------------------------------------------------------------|

|-19-15-14-15-1413-14-13-14-15-13----------10b11r------------12-10-10b|
|---------------------------------15-15-13-10b11r----10b11r--------10b|
|---------------------------------------------------------------------|
|---------------------------------------------------------------------|
|---------------------------------------------------------------------|
|---------------------------------------------------------------------|

|11r-10----------------------------------------------------------------|
|11r-----13--12-10-------10--------------------------------------------|
|--------------------12------12------12--------------------------------|
|--------------------------------14------14--12--14--12--14--(14)-(14)-|
|----------------------------------------------------------------------|
|----------------------------------------------------------------------|

|-------------|
|-------------|
|-------------|
|--{14}--{14}-|
|-------------|
|-------------|

Tab Explanation

b - bend
r - release bend
b(1\2)r - bend one half step and release
\ - slide down
/ - slide up
00:00 / 00:00
Otros videos de esta canción
Repetir
Otros videos de esta canción
Compositor no encontrado.
128 vistas
    • ½ Tono
    • A
    • Bb
    • B
    • C
    • Db
    • D
    • Eb
    • E
    • F
    • F#
    • G
    • Ab
  • Agregar a la lista

    0 comentarios

    Ver todos los comentarios

    ¿Lograste tocar?

    0 Tocaron 0 Aún no

    ¡Graba un video tocando Seperate Ways Solo y envíanoslo!

    00:00 / 00:00
    OK