Cifra Club

Eres Señor Vencedor

Juan Carlos Alvarado

Cifrado: Principal (guitarra y guitarra eléctrica)
tono: Bb
E|-----------------------------------------
B|----------------------------------9--8---
G|--10-10-8-10---10-8-10---10-10-10--------

E|-----------------------------------------
B|----------------------------------11-13--
G|--10-10-8-10---10-8-10---10-10-10--------

E|-----------------------------------------
B|-----------9--9-8-------8-9--8-8---------
G|--10-10-10---------8-10----------10------   x2


Am
Eres señor vencedor el invencible
F
eres campeón ganador en batallas
Dm                      E                             Am       G-F-G
eres mi Rey y mi Dios, el que cuida a su pueblo

CORO:
             C     G              Am
Por eso yo te canto y te alabo
             Am/G          F                    Dm         G
porque sé que me proteges porque estoy a tu lado
             C     G              Am
por eso yo te canto y te adoro
        Am/G                    F           Dm                G     F
porque se que nunca jamás me dejaras desamparado.

E|-------------------------------------------------------
B|-------------------------------------------------------
G|-----3-3---3-5s7-------3---3-5s8-------3---3-5s7--7s10-
D|-3s5-----5---------3s5---5--------3s5-----5------------

B|-----6-------6-8-----------------------
G|-5s7---5-3-3-3-5-----------------------
D|---------------------------------------

Gm
Eres señor vencedor el invencible
Eb
eres campeón ganador en batallas
Dm                      D                         Gm       F Eb F
eres mi Rey y mi Dios, el que cuida a su pueblo

CORO:
             Bb     F              Gm
Por eso yo te canto y te alabo
             Gm/F          Eb                    Cm         F
porque sé que me proteges porque estoy a tu lado
            Bb     F              Gm
por eso yo te canto y te adoro
       Gm/F          Eb                    Cm         F
porque se que nunca jamás me dejaras desamparado.
00:00 / 00:00
Otros videos de esta canción
Repetir
Otros videos de esta canción
Composición de Juank
Colaboración y revisión:
  • Giovanny Castro
2.190 vistas
    • ½ Tono
    • A
    • Bb
    • B
    • C
    • Db
    • D
    • Eb
    • E
    • F
    • F#
    • G
    • Ab
  • Agregar a la lista

    0 comentarios

    Ver todos los comentarios
    00:00 / 00:00
    OK