Cifra Club

Capricornio (part. Neo Beats e Gloria Groove)

Xamã

Cifrado: Principal (guitarra y guitarra eléctrica)
tono: G
[Intro] C#m7 F#m7 G#4 G#
        C#m7 F#m7 G#4 G#7

[Dedilhado - Intro]

Parte 1 de 4
    C#m7              F#m7
E|----------4h5p4------------2----|
B|--------5----------------2------|
G|------4----------------2--------|
D|----6----------------2----------|
A|--4-----------------------------|
E|-----------------2--------------|

Parte 2 de 4
   G#4               G#
E|----------4h5p4--------------4--|
B|-------5--------5----------4----|
G|-----6-------------------5------|
D|---6-------------------6--------|
A|--------------------------------|
E|-4-----------------4------------|

Parte 3 de 4
    C#m7           F#m7
E|----------4h5p4------------2----|
B|--------5----------------2------|
G|------4----------------2--------|
D|----6----------------2----------|
A|--4-----------------------------|
E|-----------------2--------------|

Parte 4 de 4
   G#4              G#7
E|----------4h5p4--------------4--|
B|-------5-------5----------4-----|
G|-----6------------------5-------|
D|---6----------------------------|
A|--------------------------------|
E|-4----------------4---4---------|

[Tab - Dedilhado]

Parte 1 de 4
    C#m7            F#m7
E|-------------------------------|
B|--------5---------------2------|
G|------4---4-----------2---2----|
D|----6-------6-------2-------2--|
A|--4----------------------------|
E|------------------2------------|

Parte 2 de 4
     G#4           G#
E|-------------------------------|
B|---------5-------------4-------|
G|-------6---6---------5---5-----|
D|-----6-------6-----6-------6---|
A|-------------------------------|
E|---4-------------4-------------|

Parte 3 de 4
    C#m7              F#m7
E|-------------------------------|
B|--------5---------------2------|
G|------4---4-----------2---2----|
D|----6-------6-------2-------2--|
A|--4----------------------------|
E|------------------2------------|

Parte 4 de 4
     G#4           G#7
E|-------------------------------|
B|---------5-------------4-------|
G|-------6---6---------5---5-----|
D|-----6-------6-----4-------4---|
A|-------------------------------|
E|---4-------------4-------------|


C#m7  F#m7  G#4  G#
                    Oh
C#m7  F#m7  G#4   G#7
          Caprica
C#m7                F#m7                G#4
Baby, toma conta de mim, eu sou rock n' roll
             G#
É o king, my queen, my baby
   C#7                      F#7           G#4
Um plano bom e um chá de boldin, swing no flow
          G#7
Rebola gostoso, my baby
C#7                 F#7                 G#4
Baby, toma conta de mim, eu sou rock n' roll
             G#
É o king, my queen, my baby
   C#7                      F#7           G#4
Um plano bom e um chá de boldin, swing no flow
                  G#7
Me empresta algum money, my baby

C#7                        F#7
Seu amor faliu, Victoria's Secrets
             G#4               G#
Te beijei na blitz e fugimos de drift
                  C#7                       F#7
Não posso ser seu santo, mas faço os seus fetiches
             G#4                G#7
Ela quer meu mundo e quer fifty-fifty, fifty

C#7          F#7
Papi, mami, me odeie, me lambe
    G#4                          G#
Sou favelado, se ela brotar, vou largar o inhame
C#7            F#7
Baby, honey, me odeie, me lambe
G#4                        G#7
Antes que essa nossa dança louca nos explane
        C#7                 F#7
Sou seu fã, fã, fã, fã, fã, fã, psycho killer
G#4           G#
Johnny Trash, João Estrela, drug dealer
        C#4             F#7    
Sou seu fã, fã, fã, fã, fã, dança pro genie
G#4                           G#7                  C#7
Dez e faixa, "chei de marra", o melhorzin do time, eh
F#7                    G#4
Dança bebendo, amor em doses
          G#
Capricorniana hip-hop
C#7                F#7
Universo no meu ziplock
        G#4                  G#7
Poesia Acústica, Tiago Mac, Sant, Zona Norte

                       F#7
Fazendo money, fazendo love
              G#4                 G#
Onde a Gloria pisa, a grana chove
                          C#7
Se o Xamã rimar, as ações sobem

Por quem que os sinos dobram?

Pra quê que a gente morre?

Deixa eu ir que eu tô nos corre

C#m7                F#m7                G#4
Baby, toma conta de mim, eu sou rock n' roll
             G#
É o king, my queen, my baby
   C#7                      F#7           G#4
Um plano bom e um chá de boldin, swing no flow
          G#7
Rebola gostoso, my baby
C#7                 F#7                 G#4
Baby, toma conta de mim, eu sou rock n' roll
             G#
É o king, my queen, my baby
   C#7                      F#7           G#4
Um plano bom e um chá de boldin, swing no flow
                  G#7
Me empresta algum money, my baby

C#7                    F#7
Seu amor me deixou tão chique
              G#4                    G#
Nossa vida em cliques, vitrines e boutiques
            C#7                   F#7
Só roupa de grife, num rolezin de Jeep
               G#4                 G#7
Mas tá mó correria aqui em SP city

                     C#7                    F#7
Então me desculpa, Xamã, te dou um salve amanhã
                        G#4                  G# 
É que tá foda e eu preciso focar no trabalho
                  C#7                   F#7
Teu jeito índio galã vai me botar num divã
                    G#4                     G#7
E desse jeito cê tá bagunçando meus horário
                        C#7                 F#7
Oh menininho eu sou seu fã, fã, fã, fã, fã, fã
        G#4                        G#7
Hoje eu danço contigo até de manhã

Tipo molejão
C#7                  F#7
Isso que você quer fazer, que se foda a grana
G#4                    G#7
Oi, muito prazer, sou GG, sua sugar momma

C#7                 F#7
    Um sentimento xamânico
       G#4                      G#
Ritual que me põe em transe tão único
              C#7               F#7
Veja bem, meu bem, não é mesmo irônico
             G#4                G#7
Talvez dessa vez já não seja platônico, oh

C#m7                F#m7                G#4
Baby, toma conta de mim, eu sou rock n' roll 

(Baby, toma conta de mim)
             G#
É o king, my queen, my baby (é o king, my queen)
   C#7                      F#7           G#4
Um plano bom e um chá de boldin, swing no flow
          G#7
Rebola gostoso, my baby
C#7                 F#7                 G#4
Baby, toma conta de mim, eu sou rock n' roll 
(Eu sou rock n' roll)
             G#
É o king, my queen, my baby (me chama que eu vou)
   C#7                      F#7           G#4
Um plano bom e um chá de boldin, swing no flow
                  G#7
Me empresta algum money, my baby
00:00 / 00:00
Otros videos de esta canción
Repetir
Otros videos de esta canción
Composición de Gloria Groove / Xamã
Colaboración y revisión:
  • Raphael Grechoniak
28 vistas
    • ½ Tono
    • A
    • Bb
    • B
    • C
    • Db
    • D
    • Eb
    • E
    • F
    • F#
    • G
    • Ab
  • Agregar a la lista

    0 comentarios

    Ver todos los comentarios

    ¿Lograste tocar?

    2 Tocaron 0 Aún no

    ¡Graba un video tocando Capricornio (part. Neo Beats e Gloria Groove) y envíanoslo!

    00:00 / 00:00
    OK