Cifra Club

When Love Comes Knockin' (At Your Door)

The Monkees

Tab de bajo: Principal
[Intro]

G|------------------------|
D|------------------------|
A|-6----------6---6-------|
E|----8---8-8-------8-8-8-| 

[Parte 1]

 When love.. door		just open                 him in
G|-----------------------------------------------|
D|-----------5--5-5-8-6--6------6---6-6-8----8---|
A|-6-------5---------------6--6------------6---6-|
E|----8--3---------------------------------------|  

           It’s gonna be  run undhide    So little                hide
G|-------------------------------------------------------------------|
D|-8-8-5------7------------4-5-7-8---5----------------------0-3--3-3-|
A|-------6--5---0-5-----5-7------------5\---------0-3--3-3-----------|
E|----------------------------------------3--3-3---------------------|

G|------------|
D|-6-8--------|
A|----------5-|
E|------6-8---|

[Parte 2]

 I Know that you’ve                                 viarada      
G|-------------------------------------------------------|
D|-------------5-----8-6-----6--6-6--6-5-----5-5---------|
A|--6--------5----55-----6--6-------------5------8-6-5---|
E|------8--3-------------------------------------------8-|

 Trow oof the chains         behind                      mudança de TOM
G|----------------------------------------------------------------|
D|------------------------------------------8--8-8---------9--9-9-|
A|--------------------------------3-----------------8-6-7----7----|
E|-8-8--7--7-7----6--6-6--5--5-5----6--6-6------------------------|

[Parte 3]

 When love comes     That You’re of loving me   
G|------------------------------------------------------|
D|----------------------6------6--9-7---------7--7-7-7--|
A|------7--------------6-----6---------7----7---------7-|
E|----7---------9----4----------------------------------|

           Virada                                      01:04       
G|------------------------------------------------------------------|
D|-9------9-6------8---------4-5-8-9--------------------------------|
A|---6-7------7-6------6--6-8---------11-11-11-------------7h9----6-|
E|--------------------6-------------------------9-9--9-9------7-9---|

[Parte 4]
                                                  
   01:07                                          virada
G|-------------------------------------------------|
D|-----------6----6-7------7-7-7-6------6--6-6-----|
A|-7-------6----6------7-----------6--6--------9-6-|
E|----9--4-----------------------------------------|

                                      No need to worry any more
G|---------------------------------------------------------|
D|--------------------------------------9------9-9-9---9-9-|
A|---------------------------------------------------------|
E|-9--9-9--8--8-8--7--7-7--6--6-6--6-7----6-7--------------|

   01:26                 When love comes Knockin at your door
G|--------------------------------------------------------|
D|---------------------6-7--7/9---------------------------|
A|----------------7-8-9-----------------------------------|
E|-10-10--10-9--9---------------7-------------------------|

[Final]

G|------------------------------------|
D|---9----9-9--6------7----7-7--------|
A|-7---7---------7--5---5------5—-5/7-|
E|-------------------------------7----|

G|---------------------------------------|
D|---9----9-9--6--------7------9-9-------|
A|-7---7---------7-6\5----5-5------7-5-7-|
E|---------------------------------------|
00:00 / 00:00
Otros videos de esta canción
Repetir
Otros videos de esta canción
Composición de Carole Bayer Sager / Neil Sedaka
Colaboración y revisión:
  • marcos lima
46 exhibiciones
00:00 / 00:00
OK