Cifra Club

Story Of My Life

One Direction

Cifrado: Principal (guitarra y guitarra eléctrica)
tono: Eb (con acordes en la forma de C) Capotraste en 3ª casa
[Intro] Am  C  Am  C

   Am
E|-------------0----------------------------|
B|-----1-----------1------------------------|
G|-2------2----------2----------------------|
D|----2-----2----2-----2--------------------|
A|-0-----------0----------------------------|
E|------------------------------------------|

E|-------------0----------------------------|
B|-----1-----------1------------------------|
G|-2------2----------2----------------------|
D|----2-----2----2-----2--------------------|
A|-0-----------0----------------------------|
E|------------------------------------------|

   C
E|------------------------------------------|
B|-----1---------1--------1--------1--------|
G|-------0---------0--------0--------0------|
D|-0h2-----2-2h3-----3--2-----2--2-----2----|
A|-3---------3----------3--------3----------|
E|------------------------------------------|

   Am
E|-------------0----------------------------|
B|-----1-----------1------------------------|
G|-2------2----------2----------------------|
D|----2-----2----2-----2--------------------|
A|-0-----------0----------------------------|
E|------------------------------------------|

E|-------------0----------------------------|
B|-----1-----------1------------------------|
G|-2------2----------2----------------------|
D|----2-----2----2-----2--------------------|
A|-0-----------0----------------------------|
E|------------------------------------------|

   C
E|------------------------------------------|
B|-----1---------1--------1--------1--------|
G|-------0---------0--------0--------0------|
D|-0h2-----2-2h3-----3--2-----2--2-----2----|
A|-3---------3----------3--------3----------|
E|------------------------------------------|

[Primeira Parte]

   Am
E|-------------0----------------------------|
B|-----1-----------1------------------------|
G|-2------2----------2----------------------|
D|----2-----2----2-----2--------------------|
A|-0-----------0----------------------------|
E|------------------------------------------|

E|-------------0----------------------------|
B|-----1-----------1------------------------|
G|-2------2----------2----------------------|
D|----2-----2----2-----2--------------------|
A|-0-----------0----------------------------|
E|------------------------------------------|

   C
E|------------------------------------------|
B|-----1---------1--------1------1----------|
G|-------0---------0--------0---------------|
D|-0h2-----2-2h3-----3--2-----2-------------|
A|-3---------3----------3--------3----------|
E|------------------------------------------|

   Am
E|-------------0----------------------------|
B|-----1-----------1------------------------|
G|-2------2----------2----------------------|
D|----2-----2----2-----2--------------------|
A|-0-----------0----------------------------|
E|------------------------------------------|

E|-------------0----------------------------|
B|-----1-----------1------------------------|
G|-2------2----------2----------------------|
D|----2-----2----2-----2--------------------|
A|-0-----------0----------------------------|
E|------------------------------------------|

   C
E|------------------------------------------|
B|-----1---------1--------1------1----------|
G|-------0---------0--------0---------------|
D|-0h2-----2-2h3-----3--2-----2-------------|
A|-3---------3----------3--------3----------|
E|------------------------------------------|

   Am
E|-------------0----------------------------|
B|-----1-----------1------------------------|
G|-2------2----------2----------------------|
D|----2-----2----2-----2--------------------|
A|-0-----------0----------------------------|
E|------------------------------------------|

   F7M
E|-------------0----------------------------|
B|-----1-----------1------------------------|
G|-2------2----------2----------------------|
D|----3-----3----3-----3--------------------|
A|------------------------------------------|
E|-1-----------1----------------------------|

   C
E|------------------------------------------|
B|-----1---------1--------1------1----------|
G|-------0---------0--------0---------------|
D|-0h2-----2-2h3-----3--2-----2-------------|
A|-3---------3----------3--------3----------|
E|------------------------------------------|

   Am
E|-------------0----------------------------|
B|-----1-----------1------------------------|
G|-2------2----------2----------------------|
D|----2-----2----2-----2--------------------|
A|-0-----------0----------------------------|
E|------------------------------------------|

   F7M
E|-------------0----------------------------|
B|-----1-----------1------------------------|
G|-2------2----------2----------------------|
D|----3-----3----3-----3--------------------|
A|------------------------------------------|
E|-1-----------1----------------------------|

   C
E|------------------------------------------|
B|-----1---------1--------1------1----------|
G|-------0---------0--------0---------------|
D|-0h2-----2-2h3-----3--2-----2-------------|
A|-3---------3----------3--------3----------|
E|------------------------------------------|

  Am
Written in these walls are the stories
                 C
That I can't explain
   Am
I leave my heart open
                                   C
But it stays right here empty for days

     Am
She told me in the morning
           F7M                           C
She don't feel the same about us in her bones
    Am
It seems to me that when I die
       F7M                          C
These words will be written on my stone 

[Pré-Refrão]

   F        G        Am
E|-----------------------------0------------|
B|-----1--------0--------1---------1--------|
G|-2-----0--0-----0--2-----2---------2------|
D|---3--------0--------2-----2---2-----2----|
A|-------------------0---------0------------|
E|-1--------3-------------------------------|

   F        G        Am
E|-----------------------------0------------|
B|-----1--------0--------1---------1--------|
G|-2-----0--0-----0--2-----2---------2------|
D|---3--------0--------2-----2---2-----2----|
A|-------------------0---------0------------|
E|-1--------3-------------------------------|

   F        G        Am
E|-----------------------------0------------|
B|-----1--------0--------1---------1--------|
G|-2-----0--0-----0--2-----2---------2------|
D|---3--------0--------2-----2---2-----2----|
A|-------------------0---------0------------|
E|-1--------3-------------------------------|

   G
E|------------------------------------------|
B|-0-----------0-----------0-----------0----|
G|-----0---0-------0---0-------0---0--------|
D|---0-------0---0-------0---0-------0------|
A|------------------------------------------|
E|-3-----3-----3-----3-----3-----3-----3----|

             F     G      Am
And I'll be gone, gone tonight
                       F      G     Am
The ground beneath my feet is open wide
                     F      G       Am
The way that I been holdin' on too tight
                    G
With nothing in between

[Refrão]

      C
The story of my life, I take her home
    F7M                                 Am
I drive all night to keep her warm and time
     F7M  C
Is fro___zen (the story of, the story of)
      
The story of my life I give her hope
    F
I spend her love
                     Am
Until she's broke inside
F               C
  The story of my life (the story of, the story of)

[Primeira Parte]

  Am
Written on these walls
                              C
Are the colors that I can't change
 Am
Leave my heart open
                                C
But it stays right here in its cage

    Am
I know that in the morning now
   F7M                        C
I see us in the light upon a hill
    Am
Althought I am broken
    F7M               C
My heart is untamed still

[Pré-Refrão]

             F     G      Am
And I'll be gone, gone tonight
                     F       G        Am
The fire beneath my feet is burning bright
                     F      G      Am
The way that I been holdin' on so tight
                    G
With nothing in between

[Refrão]

      C
The story of my life I take her home
    F7M                                 Am
I drive all night to keep her warm and time
     F7M  C
Is fro___zen (the story of, the story of)
      
The story of my life I give her hope
    F7M
I spend her love
                     Am
Until she's broke inside
F7M             C
  The story of my life (the story of, the story of)

[Ponte]

            F7M     G        Am            G
And I been waiting for this time to come around
          F7M    G      Am
But baby running after you
                      G
Is like chasing the clouds

[Refrão]

      C
The story of my life I take her home
    F7M                                 Am
I drive all night to keep her warm and time
     F7M  C
Is fro___zen
    
The story of my life

I give her hope (give her hope)
    F7M
I spend her love
                     Am
Until she's broke inside (until she's broke inside)

F7M               C
    The story of my life (the story of, the story of)
                 C   F7M  
The story of my life
                 F7M  Am
The story of my life    (the story of, the story of)
F7M               C
    The story of my life
00:00 / 00:00
Otros videos de esta canción
Repetir
Otros videos de esta canción
Composición de Harry Styles / Jamie Scott / John Ryan / Julian Bunetta / Liam Payne / Louis Tomlinson / Niall Horan / Zayn Malik
120.615 exhibiciones
    • ½ Tono
    • A
    • Bb
    • B
    • C
    • Db
    • D
    • Eb
    • E
    • F
    • F#
    • G
    • Ab
  • Agregar a la lista
    00:00 / 00:00
    OK