Cifra Club

Aprenda

The Power Of One

Sonata Arctica

Tablatura: Principal (guitarra)
Tom: Ab (con acordes en la forma de A) Afinação: Eb Ab Db Gb Bb Eb
               Som limpo
E|-----------------------0---1--------------------------------0---1------------------|
B|------------|------3---------3----------3-------1-------3---------3---------3------|
G|-Introdução-|----2---2---2------------3-------2-------2---2---2-----------3-------2|
D|--(45-sec)--|--0--------------------3-------2-------0-------------------3-------2--|
A|------------|-------------------\-1-------0-------------------------\-1-------0----|
E|-----------------------------------------------------------------------------------|

E|------------0---1--------------------------------0---1-----------------------------|
B|-1------3---------3---------3--------1-------3---------3---------3-------1~~-------|
G|------2---2---2-----------3--------2-------2---2---2-----------3-------2-----------|
D|----0-------------------3--------2-----/-0-------------------3-------2-------------|
A|--------------------\-1--------0-------------------------\-1-------0---------------|
E|-----------------------------------------------------------------------------------|
                                                                     ____________ __
  Verso 1                                                           |1.          |2.
E|-----------0---1-------------------------------0---1---------------|------------|--|
B|-------3---------3----------3-------1------3---------3----------3--|--------1---|--|
 G*----2---2---2------------3-------2------2---2---2------------3----|------2----*|--|
 D*--0--------------------3-------2------0--------------------3------|----2------*|--|
A|--------------------\-1-------0-------------------------\-1--------|--0---------|-/|
E|-------------------------------------------------------------------|------------|--|
 __________
           |
E|----------||-----3-----------------6----------5------------5----------3----------6-|
B|-------1--||-------3-----------------6----------6------------5----------3----------|
G|-----0----||---------3-----------------7~---------7------------5~---------3~-------|
D|---2------||-----------5~----------------------------7-----------------------------|
A|-3--------||--------------------------------5------------0-------------------------|
E|----------||---3-----------/-5~--6--------------------------------\-3----------6---|

                                  Distorção:    (guitarra 1)
E|---------------0------0------0---------------|-------------------------------------|
B|-6-----------3------3------3-----------------|-------------------------------------|
G|---7~------2------2------2--------5-5-5-/-7--|--7~---------------------7-----------|
D|-------\-0------------------------5-5-5-/-7--|--7~-----8--------2------7-----8-----|
A|----------------------------------3-3-3-/-5--|--5~-----8--------3------5-----8-----|
E|----------------------------------3-3-3-/-5--|--5~-----6--------5------5-----6-----|
                                  pm....|      (guitarra 2)                          |
                                              E|-------------------------------------|
                                              B|-------------------------------------|
                                              G|-------------------------------------|
                                              D|-------------------------------------|
                                              A|--5~-----8~---7-5-------/5~----8~--7-|
                                              E|------------------8~--5--------------|

E|-----------------------------------------------------------------------------------|
B|-----------------------------------------------------------------------------------|
G|-----------7------------------------7--------------5----------------5--------------|
D|---2-------7-----8---------2--------7----8---------5-------8--------5--------8-----|
A|---3-------5-----8---------3--------5----8---------3-------8--------3--------8-----|
E|---5-------5-----6---------5--------5----6-----------------6-----------------6-----|

E|-----------------------------------------------------------------------------------|
B|-----------------------------------------------------------------------------------|
G|-----------------------------------------------------------------------------------|
D|---------------------------------------------------5~---------------5-----5--7--8--|
A|-5-------/-5~----8~----7-5--------/-5~----8~---7-8-----8-7-8--7--8-----8-----------|
E|---8~--5-------------------8~---5--------------------------------------------------|
                                               pm..|   pm..|

E|----------------------||
B|----------------------||
G|----------------------||
D|----------------------||
A|----------------------||
E|---\-3~---------------||
                        ||  (verso 2
E|----------------------||-----------------------------------------------------------|
B|----------------------||-----------------------------------------------------------|
G|----------------------||*----------------------------------------------------------|
D|--7--5-------A.H.-----||*----------------------------------------------------------|
A|--------8--7--5~--\---||--5-5-5--5-5-5-5--5-5-5--5-5-5-5--5-5-5--5-5-5-5--5-5-5--5-|
E|----------------------||-----------------------------------------------------------|
                          pm........................................................

                                                                    x2   Bridge (1)
E|------------------------------------------------------------------------Gtr.1------|
B|----------------------------------------------------------------------|------------|
G|---------------------------------------------------------------------*|------------|
D|---------------------------------------------------------------------*|---5--------|
A|-5-5-5-5--5-5-5--5-5-5-5--5-5-5--5-5-5-5--5-5-5-5-5-5--5-5-5--5-5-5---|---5--------|
E|----------------------------------------------------------------------|---3--------|
 ...................................................................|  | Gtr.2      |
                                                                      E|------------|
                                                                      B|------------|
                                                                      G|------------|
                                                                      D|---5--------|
                                                                      A|---5--3-5~--|
                                                                      E|---3-------3|
                                                                             pm

E|-----------------------------------------------------------------------------------|
B|-----------------------------------------------------------------------------------|
G|----8---------------------------8------------------------8-------------------------|
D|----8-------------5-------------8------------5-----------8-------------5-----------|
A|----6-------------5-------------6------------5-----------6-------------5-----------|
E|----6-------------3-------------6------------3-----------6-------------3-----------|

E|-----------------------------------------------------------------------------------|
B|-----------------------------------------------------------------------------------|
G|-----------------------------------------------------------------------------------|
D|------------------5----------------------------------------------------------------|
A|----6-----5~-6~---5--3-5~-A.H.--6-5---5~-6~--6-5-3-5~-----6-5---5~-6~--6-5-3-5~----|
E~-------8---------3--------3~-------8-----------------3~------8-----------------3~-|
        pm           pm             pm           pm           pm           pm

E|---------------||
B|---------------||
G|--8------------||
D|--8------------||
A|--6------------||
E|--6------------||
                 ||  (refrão 1)                                                  
E|---------------||------------------------------------------------------------------|
B|---------------||------------------------------------------------------------------|
G|---------------||---5------5---5---5-\-3----3---3------8------8--------------------|
D|---------------||---5------5---5---5-\-3----3---3------8------8-----\-6-----6----5-|
A|--6-5---5~-6~--||---3-3-3--3-3-3-3-3-\-1--1-1-1-1-1-1--6--6-6-6-6-6-\-6-----6----6-|
E|------8--------||---------------------------------------------------\-4-4-4-4-4----|
      pm              pm..|  pm  pm       pm  pm  pm..|   pm..| pm..|   pm..| pm

E|-----------------------------------------------------------------------------------|
B|-----------------------------------------------------------------------------------|
G|-----\-5------5---5------3----3~------/-8-----8------------------------/--5--------|
D|-3-5-\-5------5---5------3----3~------/-8-----8-------6----------------/--5--------|
A|-5-6-\-3-3-3--3-3-3-3-3--1--1-1~--1-1-/-6---6-6-6-6---6----------------/--3--3-3-3-|
E|------------------------------------------------------4--4-4-4--4-4-4--------------|
         pm..|  pm  pm..|    pm   pm..|     pm  pm..|    pm...........|      pm....|

                                                                               (verso)
E|-----------------------------------------------------------------------------------|
B|----------------------------------------------------------------------------|------|
G|-5-------\--3-----3------------/-8------8-----------------------------------|------|
D|-5-------\--3-----3------------/-8------8------\-5----5--5--/--6-----\--3---|--7---|
A|-3-3-3-3-\--1-1-1-1--1--1--1-1-/-6--6-6-6--6-6-\-5----5--5--/--6-----\--3---|--5-5-|
E|-----------------------------------------------\-3--3-3--3--/--4-----\--1----------|
   pm....|    pm..|  pm........|    pm..|  pm..|    pm                           pm.

  3
E|-----------------------------------------------------------------------------------|
B|-----------------------------------------------------------------------------------|
G|-----------------------------------------------------------------------------------|
D|-----------7---------7-----/8-------------8---------7h8p7p5-----7-------------7----|
A|-5-5-5-5-5-5-5-5-5-5-5-5-5--5-5-5-5-5-5-5-5-5-5-5-5---------8p7p5-5-5-5-5-5-5-5-5-5|
E|-----------------------------------------------------------------------------------|
 ..........| pm......| pm..|  pm..........| pm......|             pm..........| pm..

E|-----------------------------------------------------------------------------------|
B|-----------------------------------------------------------------------------------|
G|-----------------------------------------------------------------------------------|
D|-----7-----/8-------------8---------7h8p7p5-----7-------------7---------7-----/8---|
A|-5-5-5-5-5--5-5-5-5-5-5-5-5-5-5-5-5---------8p7p5-5-5-5-5-5-5-5-5-5-5-5-5-5-5--5-5-|
E|-----------------------------------------------------------------------------------|
 ....| pm..|  pm..........| pm......|             pm..........| pm......| pm..|  pm.

E|-----------------------------------------------------------------------------------|
B|-----------------------------------------------------------------------------------|
G|-----------------------------------------------------------------------------------|
D|-----------8---------7h8p7p5-----7-------------7---------7-----/8-------------8----|
A|-5-5-5-5-5-5-5-5-5-5---------8p7---5-5-5-5-5-5-5-5-5-5-5-5-5-5--5-5-5-5-5-5-5-5-5-5|
E|-----------------------------------------------------------------------------------|
 ..........| pm......|           pm............| pm......| pm..|  pm..........| pm..

                 (ponte 2)                                             (refrão 2)
E|-----------------------------------------------------------------------------------|
B|--------------|---------------------------------------------------|----------------|
G|--------------|----------8-----------8-----------8-----------8----|---5------------|
D|-------8------|----5-----8-----5-----8-----5-----8-----5-----8----|---5------------|
A|-5-5-5-5-5-5--|----5-----6-----5-----6-----5-----6-----5-----6----|---3-3-3-3-3-3-3|
E|-------------------3-----6-----3-----6-----3-----6-----3-----6---------------------|
 ......| pm..|                                                          pm..........|

E|-----------------------------------------------------------------------------------|
B|-----------------------------------------------------------------------------------|
G|--5---------5-----\-3-------------3---------3-----/-8-------------8---------8------|
D|--5---------5-----\-3-------------3---------3-----/-8-------------8---------8------|
A|--3-3-3-3-3-3-3-3-\-1-1-1-1-1-1-1-1-1-1-1-1-1-1-1-/-6-6-6-6-6-6-6-6-6-6-6-6-6-6-6--|
E|-----------------------------------------------------------------------------------|
    pm......| pm..|   pm..........| pm......| pm..|   pm..........| pm......| pm...|

E|-----------------------------------------------------------------------------------|
B|-----------------------------------------------------------------------------------|
G|--------------------------------/--5-------------5---------5-----\-3-------------3-|
D|-6-------------6---------6------/--5-------------5---------5-----\-3-------------3-|
A|-6-------------6---------6------/--3-3-3-3-3-3-3-3-3-3-3-3-3-3-3-\-1-1-1-1-1-1-1-1-|
E|-4-4-4-4-4-4-4-4-4-4-4-4-4-4-4-----------------------------------------------------|
   pm..........| pm......| pm..|     pm..........| pm......| pm..|   pm..........|

E|-----------------------------------------------------------------------------------|
B|-----------------------------------------------------------------------------------|
G|---------3-----/-8-------------8---------8-----------------------------------------|
D|---------3-----/-8-------------8---------8------\-6-----------------------5h6h8p5--|
A|-1-1-1-1-1-1-1-/-6-6-6-6-6-6-6-6-6-6-6-6-6-6-6--\-6-----------------5h6h8----------|
E|------------------------------------------------\-4-4-4-4-4-4-4-4-4----------------|
 pm......| pm..|  pm...........| pm......| pm..|    pm...............|

E|-----------------------------------------------------------------------------------|
B|-----------------------------------------------------------------------------------|
G|5-------------5---------5-----\-3-------------3---------3-----/-8-------------8----|
D|5-------------5---------5-----\-3-------------3---------3-----/-8-------------8----|
A|3-3-3-3-3-3-3-3-3-3-3-3-3-3-3-\-1-1-1-1-1-1-1-1-1-1-1-1-1-1-1-/-6-6-6-6-6-6-6-6-6-6|
E|-----------------------------------------------------------------------------------|
  pm..........| pm......|         pm..........| pm......| pm..|  pm...........| pm..

E|-----------------------------------------------------------------------------------|
B|--------------------------------------------------|--------|-----------------------|
G|-----8--------------------------------------------|--7--\--|---teclado-intervalo--|
D|-----8----\-5~------6--/-4h6-6-6-6-6-6-6-6----3~--|--7--\--|-----------------------|
A|-6-6-6-6--\-5~------6-------------------------3~--|--5--\--|-----------------------|
E|----------\-3~------4-------------------------1~-----5--\--------------------------|
 ..|   pm                pm................|

  Guitarra Som limpo (5:11)
E|---------------------------------3------------------3-----------------5------------|
B|-------------8-----------------4---4------------------3-------------6---6----------|
G|-----------8---8-------------3-------3------------3-----3---------7-------7--------|
D|--------10-------10--------5-----------5--------5---------5-----7-----------7-----5|
A|-----10--------------5-/-6--------------------5-------------/-5---------------\-3--|
E|---8--------------------------------------\-3--------------------------------------|

E|------3----------------3------------------3---------------3--------|-Gtr.1-----3---|
B|----4---4------------4---4--------------6---6-----------6---6------|---------4---4-|
G|--5-------5--------3-------3----------3-------3-------3-------3----|-------5-------|
D|-----------------5-----------5-\-3-h7-----------7-3-7-----------7--|-----5---------|
A|------------5-/6---------------------------------------------------|---3-----------|
E|-------------------------------------------------------------------|---------------|
                                                                     | (guitarra.2)
                                                                    E|--Distorção:---|
                                                                    B|---------------|
                                                                    G|---5-----------|
                                                                    D|---5-----------|
                                                                    A|---3-----------|
                                                                    E|---------------|

E|---------------3-----------------3-----------------5----------------3--------------|
B|-------------4---4-----------------3-------------6---6------------4---4------------|
G|--5--------3-------3-----------3-----3---------7-------7--------5-------5--------3-|
D|---------5-----------5-------5---------5-----7-----------7----5----------------5---|
A|----5-/6-------------------5-------------/-5---------------\3-------------5-/6-----|
E|-----------------------\-3---------------------------------------------------------|
                                                                                    |
E|-----------------------------------------------------------------------------------|
B|-----------------------------------------------------------------------------------|
G|-------8-----------------------------------7----------------5----------------8-----|
D|-------8-----------------5-----------------7----------------5----------------8-----|
A|-------6-----------------5-----------------5----------------3----------------6-----|
E|-------------------------3---------------------------------------------------------|

E|---3-------||
B|-4---4-----||
G|-------3---||
D|---------5-||
A|-----------||
E|-----------||
             || G(--------||----------------------------------------------------------------------|
B|-----------||--/-10b(11)~---(11)~--r10-\-3~--3-5-6~-5b(6)--r5--3-------------------|
G|-----------||----------------------------------------------------2~--2-2-3-/5--3-3p|
D|-----------||----------------------------------------------------------------------|
A|------6-6--||----------------------------------------------------------------------|
E|-----------||----------------------------------------------------------------------|
      pm..|

E|-----------------------------------------------------------------------------------|
B|-----------------------------------------------------------------------------------|
G2h3~--3/5--3--3p2h3~--3p2p0--------------------------------------------------------|
D|----------------------------3~-5----------------------------------12-14-15-12-14-15|
A|---------------------------------\-7~-----------------10-12-13/15------------------|
E|---------------------------------------13p12p10h12-13------------------------------|

E|-------------------------13----13-15-13-15-17-15-17-/-18~--------------------------|
B|----------13-15-17-15-17----17-----------------------------|-------------------|---|
G|-12-14-15--------------------------------------------------|--Teclado-Solo-1--|---|
D|-----------------------------------------------------------|-------------------|---|
A|-----------------------------------------------------------|-------------------|---|
E|---------------------------------------------------------------------------------6h|
                                                                                 pm.

E|-----------------------------------------------------------------------------------|
B|-----------------------------------------------------------------------------------|
G|-----------------------------------------------------------------------------------|
D|-----------------------------------------------------------------/5-5-5-5-5-5-5-5-5|
A|-------------------------------5/6-6-6-6-6-6-6-6-6-6-6-6-6-6-6-6-------------------|
Eh8-8-8-8-8-8-8-8-8-8-8-8-8-8-8-----------------------------------------------------|
 ...................................................................................

E|-----------------------------------------------------------------------------------|
B|-----------------------------------------------------------------------------------|
G|-----------------------------------------------------------------------------------|
D|-5-5-5-5-5-5-----------------------------------------------------------------------|
A|------------\1-3-5-5-5-5-5-5-5-5-5-5-5-5-5-5-5-5-------------------------------5-5-|
E|-------------------------------------------------\-8-8-8-8-8-8-8-8-8-8-8-8-8-8-----|
 ...................................................................................

E|-----------------------------------------------------------------------------------|
B|-----------------------------------------------------------------------------------|
G|------------------------------------10---------10------------------10---------10---|
D|------------------------------------10---------10------------------10---------10---|
A|-5/6-6-6-6-6-6-6-6-6-6-6-6-6-6-6-6---8-8-8-8-8--8--8-8-8-8-8-8-8-8--8-8-8-8-8--8--8|
E|-----------------------------------------------------------------------------------|
 ..................................|   pm......|   pm..............|  pm......|   pm

E|-----------------------------------------------------------------------------------|
B|-----------------------------------------------------------------------------------|
G|-----------------------------------------------------------------------------------|
D|-----------------------------------------------------------------------------------|
A|-8-8-8-8-8-8-8-------------------------------5-5-5/6-6-6-6-6-6-6-6-6-6-6-6-6-6-6-6-|
E|----------------\6h8-8-8-8-8-8-8-8-8-8-8-8-8---------------------------------------|
 ...................................................................................

E|-----------------------------------------------------------------------------------|
B|-----------------------------------------------------------------------------------|
G|-----------------------------------------------------------------------------------|
D|-----------------------------------------------------------------------------------|
A|------------------------------/1-3-5-5-5-5-5-5-5-5-5-5-5-5-5-5-5-5-\3-3-3-3-3-3-3-3|
E|-\3-3-3-3-3-3-3-3-3-3-3-3-3-3------------------------------------------------------|
 ...................................................................................

E|-----------------------------------------------------------------------------------|
B|---------------------------------------|-------------------------------------------|
G|---------------/-8-8-8-8-8-8--8--8--8--|*---------------------------3--------------|
D|---------------/-8-8-8-8-8-8--8--8--8--|*--------5------/-7--7--7---3---------1--1-|
A|-3-3-3-3/5-5-5-/-6-6-6-6-6-6--6--6--6--|-----------5----/-8--8--8---1--1h3h5--3--3-|
E|-------------------------------------------3-3-3-----3--/-5--5--5------------------|
 ..............|                           pm....|   pm

E|-----------------------------------------------------------------------------------|
B|-----------------------------------------------------------------------------------|
G|----/-8---5--5--5-/-6------------------------------------------------------------6-|
D|-1--/-8---5--5--5-/-6---8-\-6-\-5-\-3~--3------/-5--5--5-/-6---------/-8--8--8---6-|
A|-3--/-6---3--3--3-/-4---8-\-6-\-5-\-3~----3----/-6--6--6-/-6---------/-9--9--8---4-|
E|------------------------6-\-4-\-3-\-1~------1--/-3--3--3-/-4--4-4-4--/-6--6--6-----|
                                                              pm....|
                                x2
E|-----------------------------------------------------------------------------------|
B|----------------------------------|------------------------------------------------|
G|-----------------------4---------*|*--5-----4----------------------5------4--------|
D|--8--8--8-/-9----------4--3-/-4--*|*--------------5---4---5---4-----------------5--|
A|--8--8--8-/-9----------2--3-/-4---|-----0-0---0-0---3---0---3---0----0-0----0-0---3|
E|--6--6--6-/-7--7-7-7------1-/-2----------------------------------------------------|
               pm....|                  pm..| pm..| pm  pm  pm  pm   pm..|  pm..| pm

              x2
E|-----------------------------------------------------------------------------------|
B|----------------|------------------------------------------------------------------|
G|---------------*|--5---4--------------------5---4--------------------5---4---------|
D|-4---5---4-----*|----------5---4---5---4------------5---4---5---4------------5---4-|
A|---0---3---0----|----0---0---3---3---3---3----0---0---3---3---3---3----0---0---3---|
E|-----------------------------------------------------------------------------------|
   pm  pm  pm        pm  pm  pm  pm  pm  pm   pm  pm  pm  pm  pm  pm   pm  pm  pm

E|-----------------------------------------------------------------------------------|
B|-------------------------------------|---------------------------------------------|
G|------------5---4--------------------|*--5-----4---------------------/5-----4------|
D|---5---4------------5---4---5---4----|*--------------5---4---5---4-----------------|
A|-3---3---3----0---0---3---3---3---3--|-----0-0---0-0---3---0---3---0----0-0---0-0--|
E|-----------------------------------------------------------------------------------|
 pm  pm  pm   pm  pm  pm  pm  pm  pm       pm..| pm..| pm  pm  pm  pm   pm..| pm..|
  ___________________ ___________________________________
 |1.                 |2.                                 |   Guitarra Solo 2
E|-------------------|----------------*=Gtr.2----/12~----||-------------------------|
B|-------------------|-----------------------------------||----------------18b(20)~-|
G|------------------*|-------------------5-7-9~----------||--/-14~---16-17----------|
D|-5---4---5---4----*|-------------5-/-9----*7~----------||-------------------------|
A|---3---0---3---0---|--------5h7-----------*7~----------||-------------------------|
E|-------------------|--5h7h8---.-----------*5~----------||-------------------------|
    pm  pm  pm  pm

E|-----------------------------------------------------------------------------------|
B|-r18-17-18~------------------------------------------15h18p15h17p16p15p14----------|
G|--------------------------------------------------14----------------------14-------|
D|---------------------------12h15p12h14p12------16----------------------------16----|
A|---------------------12h15----------------\-17----------------------------------17-|
E|-------------\-10h13---------------------------------------------------------------|

E|-----------/-17-15-13----------15-13-12----------13-12-10--------------------------|
B|----------------------17-15-13----------15-13-12----------13-12-10-----------------|
G|-------------------------------------------------------------------12-10-9---------|
D|-14-15-16~-----------------------------------------------------------------12-10-9-|
A|-----------------------------------------------------------------------------------|
E|-----------------------------------------------------------------------------------|

E|--------------------------------------------/12--10-----------------/17--15--13----|
B|--------------------------------------------/13--12--13--12--13-10--/18--17--15--17|
G|------------------9-10-9-------------/14~------------14--12--14-10---------------17|
D|----------9-10-12--------12-10-9---------------------------------------------------|
A|-12-10-12------------------------12------------------------------------------------|
E|-----------------------------------------------------------------------------------|

E|-13-13~----19b(20)-r-19-19~-\-12b(13)-r-12-12--17p12----------12h17p12h17p12-------|
B|-15-15~----17b(18)-r-18-18~-\-12b(13)-r-12-12--------13----13----------------13----|
G|--------------------------------------------------------14----------------------14-|
D|-----------------------------------------------------------------------------------|
A|-----------------------------------------------------------------------------------|
E|-----------------------------------------------------------------------------------|

E|----12h17p12----------12h16p12----------12h16p12h16p12----------12h16p12-----------|
B|-13----------13----13----------12----12----------------12----12----------12----12--|
G|----------------14----------------13----------------------13----------------13-----|
D|-----------------------------------------------------------------------------------|
A|-----------------------------------------------------------------------------------|
E|-----------------------------------------------------------------------------------|

                            Outro (Som limpo)
E|-12---------------------------5---5---5--------------------/--0--0---0-------------|
B|-----|-------------------|----6---6---6-6---\--6--6--------/--1--1---1-1--\--1--1--|
G|-----|--Teclado-Solo-2--|*---7---7---7-7---\--7--7---7-7--/--2--2---2-2--\--2--2--|
D|-----|-------------------|*---7---7-----7---\--8--8---8-8--/--2--2-----2--\--3--3--|
A|-----|-------------------|----5---5---------\--8--8---8-8--/--0--0--------\--3--3--|
E|--------------------------------------------\--6--6---6-6-----------------\--1--1--|

E|--1------||
B|--1-1----||
G|--2-2---*||
D|--3-3---*||
A|----3----||
E|---------||

-----------------------------------------------------------------------------------------

  (solo 1)
E|-----------------------------------------------------------------------------------||
B|-----------------------------------------------------------------------------------||
G|----------------------/-7---------------------------------------------5--------5---|| 
D|---5---/-7-/-8~-------/-7--------\-7------7-/-8-\-5-----5--/--8--8----5--------5---||
A|---5---/-7-/-8~-------/-5----5-5-\-7------7-/-8-\-5-----5--/--8--8----3---3-3--3---||
E|---3---/-5-/-6~---6-6------------\-5---5--5-/-6-\-3-----3--/--6--6-----------------||
                  pm..|      pm..|     pm                                 pm..|

E|-----------------------------------------------------------------------------------|
B|-----------------------------------------------------------------------------------|
G|-----------------------------------------------------------------------------------|
D|---5-------------------------------------------------------------------------------|
A|---5--------------------------------------------------------------------/5-5-5-5-5-|
E|---3--3-3-3-3-3-3-3-3-3-3-3-3-/5-5/6-6-6-6-6-6-6-6-6-6-6-6-6-6-6-6--6-6------------|
      pm............................................................................

E|-----------------------------------------------------------------------------------|
B|-----------------------------------------------------------------------------------|
G|-----------------------------------------------------------------------------------|
D|-----------------------------------------------------------------------------------|
A|-5-5-5-5-5-5-5-5-5-5--5-5----------------------------------------------------------|
E|---------------------------\5-5-5-5-5-5-5-5-5-5-5-5-5-5-5-5--5-5-\-3-3-3-3-3-3-3-3-|
 ...................................................................................

E|-------------------------------------------------------------||
B|-------------------------------------------------------------||
G|-------------------------------------------------------------||
D|-------------------------------------------------------------||
A|-------------------------------------------------------------||
E|-3-3-3-3-3-3-3-3-/5-5/6-6-6-6-6-6-6-6-6-6-6-6-6-6-6-6--6-6---||
 ...........................................................|

E|-----------------------------------------------------------------------------------|
B|-----------------------------------------------------------------------------------|
G|-----------------------------------------------------------------------------------|
D|---------------------------------------------------------------/3-3-3-3-3-3-3-3-3-3|
A|---0-0-0-0-0-0-0-0-0-0-0-0-0-0-0-0-0-0-0-0-0-0-0-0-0-0-0-0-0-0---------------------|
E|-----------------------------------------------------------------------------------|
   pm...............................................................................

E|-----------------------------------------------------------------------------------|
B|-----------------------------------------------------------------------------------|
G|-----------------------------------------------------------------------------------|
D|-3-3-3-3-3-3-3-3-3-3-3-3-3-3-3-3-3-3-3-3-3-----------------------------------------|
A|-------------------------------------------\5-5-5-5-5-5-5-5-5-5-5-5-5-5-5-5-5-5-5-5|
E|-----------------------------------------------------------------------------------|
 ...................................................................................

E|-----------------------------------------------------------------------------------|
B|-----------------------------------------------------------------------------------|
G|-----------------------------------------------------------------------------------|
D|-----------------------------------------------------------------------------------|
A|-5-5-5-5-5-5-5-5-5-5-5-5-\0-0-0-0-0-0-0-0-0-0-0-0-0-0-0-0-0-0-0-0-0-0-0-0-0-0-0-0--|
E|----------------------------------------------------------------------------------\|
 ...................................................................................

E|-----------------------------------------------------------------------------------|
B|-----------------------------------------------------------------------------------|
G|-----------------------------------------------------------------------------------|
D|-----------------------------------------------------------------------------------|
A|-------------------------------------------------------------------/5-5-5-5-5-5-5-5|
E|-3-3-3-\-1-1-1-1-1-1-1-1-1-1-1-1-1-1-1-1-1-1-1-1-1-1-1-1-1-1-1-1-1-----------------|
 ...................................................................................

E|-----------------------------------------------------------------------------------|
B|-----------------------------------------------------------------------------------|
G|-----------------------------------------------------------------------------------|
D|-----------------------------------------------------------------------------------|
A|-5-5-5-5-5-5-5-5-5-5-5-5-5-5-5-5-5-5-5-5-5-5-5-/5h7-7-7-7-7-7-7-7-5h7-7-7-7-7-5h7h8|
E|-----------------------------------------------------------------------------------|
 ..............................................|    pm............|   pm......|

E|-----------------------------------------------------------------------------------|
B|-----------------------------------------------------------------------------------|
G|-----------------------------------------------------------------------------------|
D|-----------------------------------------------------------------------------------|
Ap7\5h7-7-7-7-7-7-7-7-7-5h7-7-7-7-7-5h7h8p7\5h7-7-7-7-7-7-7-7-5h7-7-7-7-7-5h7h8p7-\5|
E|-----------------------------------------------------------------------------------|
       pm..............|   pm......|           pm............|   pm......|

                                     x2
E|--------------------------------------------------||
B|---------------------------------------|----------||
G|--------------------------------------*|----------|| 
D|--------------------------------------*|---7--\---||
A|-7-7-7-7-7-7-7-7-7~--7-7-7-7-7-7-7-----|---5--\---||
E|-------------------------------------------5--\---||
   pm............|   pm............|
Compositor Tony Kakko
Colaboración y revision:
  • TMOG
  • Gustavo Kuhn
112 reproducciones
    • ½ Tom
    • A
    • Bb
    • B
    • C
    • Db
    • D
    • Eb
    • E
    • F
    • F#
    • G
    • Ab
  • Adicionar à lista

    0 comentarios

    Mostrar mais comentários

    ¿Conseguiste tocar?

    1 Tocaron 0 Ainda não

    Grave um vídeo tocando The Power Of One e mande pra gente!

    00:00 / 00:00
    outros vídeos desta música
    repetir qualidade Automático
    Outros vídeos desta música
    00:00 / 00:00
    Automático
    OK