Cifra Club

Aprenda

The Ruins Of My Life

Sonata Arctica

Tablatura: Principal (guitarra)
Tom: G
E|----------------|--------------------------------------------------------|
B|----------------|--------------------------------------------------------|
G|----Intro-------|--------------------------------------------------------|
D|--(teclado)-----|--------------------------------------------------------|
A|----------------|--7-----------7------------------5-----------5----------|
E|----------------|----0-0-7-0-0---0-0-7-0-0--3-0-0---0-0-3-0-0---0-0--10-0|


  Pre|-Coro
E|----------------------------------------------|--------------------------|
B|----------------------------------------------|--------------------------|
G|----------------------------------------------|--------------------------|
D|----------------------------------------------|--3------------5----------|
A|----------------------------------------------|--3------------5----------|
E|-0-7-0-0-10-0-0-7-0-0--10-0-0-5-0-0-10-0-0-9--|--1------------3----------|


E|-------------------------------------------------------------------------|
B|-------------------------------------------------------------------------|
G|-------------------------------------------------------------------------|
D|--7------------------------3------------5------------7-------------------|
A|--7------------------------3------------5------------7-------------------|
E|--5------------------------1------------3------------5-------------------|


E|-------------------------------------------------------------------------|
B|-------------------------------------------------------------------------|
G|-------------------------------3------------5------------8------------10-|
D|-----3------------5------------3------------5------------8------------10-|
A|-----3------------5------------1------------3------------6-------------8-|
E|-----1------------3------------------------------------------------------|


Coro
E|-----------|-------------------------------------------------------------|
B|-----------|-------------------------------------------------------------|
G|-----------|-------------------------------------------7-----------------|
D|-----------|--5------------2-------------7-------------7-------------5---|
A|-----------|--5------------2-------------7-------------5-------------5---|
E|-----------|--3------------0-------------5---------------------------3---|


E|-------------------------------------------------------------------------|
B|-------------------------------------------------------------------------|
G|-------------------------------------------------------------------------|
D|----------2-------------7-------------------------5------------2---------|
A|----------2-------------7-------------------------5------------2---------|
E|----------0-------------5-------------------------3------------0---------|


E|--------------------------------------------------------|-----------|----|
B|--------------------------------------------------------|-----------|----|
G|---4------------7---------------------------------------|---Verso---|---P|
D|---4------------7-------------5------------2------------|-----------|----|
A|---2------------5-------------5------------2------------|-----------|----|
E|------------------------------3------------0------------|-----------|----|


solo
E|------------|------------|--------------------------7-7----7-10--10--7--7|
B|------------|------------|--------7-8--8--7h8p7---------10---------------|
G|re|-chorus---|---chorus---|--9---9---------------9------------------------|
D|------------|------------|-----------------------------------------------|
A|------------|------------|-----------------------------------------------|
E|------------|------------|-----------------------------------------------|


E|--8---7h8p7--------------------------8h10h12p10p8------------------------|
B|------------10-8h10p8p7------8h10h12--------------12p10------------------|
G|------------------------9h11----------------------------9p7p5-------7p5p4|
D|--------------------------------------------------------------9p7p5------|
A|-------------------------------------------------------------------------|
E|-------------------------------------------------------------------------|


E|------------------------------12p7---------------------7-/-17p14---------|
B|-----------------------------------8-----------------8-----------15----15|
G|-------------------------------------9-------------9----------------14---|
D|-7p5p4-5~~-----keyboard----------------9---------9-----------------------|
A|-----------------------------------------10p7h10-------------------------|
E|-------------------------------------------------------------------------|


E|-14\\-12p7-------7--19p17p15----------------------------------------------|
B|----------8---8-------------19p17p15-------------------------------------|
G|------------9------------------------17p16p14-------------------14h16h17-|
D|----------------------------------------------17p16p14-14h16h17----------|
A|-------------------------------------------------------------------------|
E|-------------------------------------------------------------------------|


E|-----19h20p19p17-------17h19p17p15-------15h17p15p14-------14h15p14------|
B|-----------------20p19\\------------19p17\\------------17p15----------15p13|
G|-------------------------------------------------------------------------|
D|14-----------------------------------------------------------------------|
A|-------------------------------------------------------------------------|
E|-------------------------------------------------------------------------|


E|-------------------------------------------------------------|-----------|
B|p12-12h13p12-------------------------------------------------|-----------|
G|-------------14p12p11-11h12p11-------------------keyboard----|-----------|
D|-------------------------------14p12p10----------------------|-----------|
A|-----------------------------------------10~~----------------|-----------|
E|-------------------------------------------------------------|--3--3--3--|


E|-------------------------------------------------------------------------|
B|-------------------------------------------------------------------------|
G|-------------------------------------------------------------------------|
D|----------------------4--------------------------------------------------|
A|--------------0-2-2-2-2--2-2-2-0-0----2-2-2--2-2-2--2--0----0-2-2-2-2-2-2|
E|3-----3-----3------------------------------------------------------------|


Bridge 1 *2 Bridge 2
E|------------|-------------------------------------|----------------------|
B|------------|-------------------------------------|----------------------|
G|------------|-----------4----------------2--------|-------------4--------|
D|------------|--2--------4-------5--------2--------|--2----------4--------|
A|-2-2-2------|--2--------2-------5--------0--------|--2----------2--------|
E|-------3-3--|--0----------------3-----------------|--0------3-5----------|
.......... pm...

*Teclado    Guitarra          *Teclado    Guitarra       *Teclado    Guitarra
E|------------------|-----------0-----------2--------------------2--3------|
B|------------------|--------3-----------5-----------2--3-----3------------|
G|---------2--------|-----4-----------4-----------4--------4--------------4|
D|5--------2--------|--5-----------5-----------4-----------------------5---|
A|5--------0--------|------------------------------------------------------|
E|3-----------------|------------------------------------------------------|

*Teclado    Guitarra           *Teclado    Guitarra       *Teclado    Guitarra
E|-----0-----------2---3---2---0-----------0-----------2-------------------|
B|--3-----------5-----------------------3-----------5-----------2--3-------|
G|-----------4-----------------------4-----------4-----------4-----------2-|
D|--------5-----------------------5-----------5-----------4-----------4----|
A|-------------------------------------------------------------------------|
E|-------------------------------------------------------------------------|


E|----2--------3--------0-----------------|--------------------------------|
B|-3--3--------5--------2--------2--------|--------------------------------|
G|-------------------------------2--------|--------------------4-----------|
D|----------------------------------------|--7--------4--------4--------2--|
A|----------------------------------------|--7--------4--------2--------2--|
E|----------------------------------------|--5--------2-----------------0--|


E|-------------------------------------------------------------------------|
B|-------------------------------------------------------------------------|
G|------------------------4---------------2----------------6---------------|
D|------7--------4--------4---------------2--------4-------6-------2-------|
A|------7--------4--------2---------------0--------4-------4-------2-------|
E|------5--------2---------------------------------2---------------0-------|


Outro 
E|--------------------|----------------------|---------------------|-------|
B|--------------------|----------------------|---------------------|-------|
G|2--------------8----|--------------9---7---|--9----------9---7---|--End--|
D|2----6----4----9----|--------------9---7---|--9----------9---7---|-------|
A|0----6----4----6----|--------------7---5---|--7----------7---5---|-------|
E|-----4----2---------|--0-0-0-0-0-0---------|-----0-0-0-0---------|-------|


E|--------------------------------------Guitarra Solo----------------------|
B|-------------------------------------------------------------------------|
G|-----------------7-----------------------------------------------9-------|
D|-2-------2-------7-------2-------5-------5-------5-------7-------9-------|
A|-2-------2-------5--5-5--2-------5-------5-------5-------7-------7--7-7--|
E|-0--0-0--0--0-0----------0--0-0--3--3-3--3--3-3--3--3-3--5--5-5----------|


E|-----------------------------------teclado-solo--------------------------|
B|-------------------------------------------------------------------------|
G|7-----5-------2-----2-------4--------------------------------------3-----|
D|7-----5-------2-----2-------5------5-------5-------3-------5-------3-----|
A|5-----3--3-3--0-----0--0-0--2------5-------5-------3-------5-------1--1-1|
E|-----------------------------------3--3-3--3--3-3--1--1-1--3--3-3--------|


E|-----------------------------------------------------------------guitarra|
B|-------------------------------------------------------------------------|
G|--3-------3-------5---------------------8-------5--------5-----7---------|
D|--3-------3-------5-------5-------3-----8-------5--------5-----7---------|
A|--1--1-1--1--1-1--3--3-3--5-------3-----6--6-6--3-----3--3--5--5---------|
E|--------------------------3--3-3--1--------------------------------0-0-0-|


E|-solo--------------------------------------------------------------------|
B|-------------------------------------------------------------------------|
G|-------7-----------------------------------------------9-------7------5--|
D|-2-----7-------2-------5-------5-------5-------7-------9-------7------5--|
A|-2-----5--5-5--2-------5-------5-------5-------7-------7--7-7--5------3--|
E|-0-------------0--0-0--3--3-3--3--3-3--3--3-3--5--5-5--------------------|


E|---------------------------teclado---------------------------------------|
B|-------------------------------------------------------------------------|
G|-----2------2-------4-----------------------------------3-------3-------5|
D|-----2------2-------5-------------5----3----5-----------3-------3-------5|
A|3-3--0------0-------2-------------5----3----5----1-1-1--1--1-1--1--1-1--3|
E|---------------------------3-3-3--3----1----3----------------------------|


E|----------------------------------|
B|----------------------------------|
G|--------------8----5----5----7----|
D|----5----3----8----5----5----7----|
A|----5----3----6----3----3----5----|
E|----3----1------------------------|
Compositor sonata arctica
Colaboración y revision:
  • Eduardo Bonete
25 reproducciones
    • ½ Tom
    • A
    • Bb
    • B
    • C
    • Db
    • D
    • Eb
    • E
    • F
    • F#
    • G
    • Ab
  • Adicionar à lista

    0 comentarios

    Mostrar mais comentários

    ¿Conseguiste tocar?

    0 Tocaron 0 Ainda não

    Grave um vídeo tocando The Ruins Of My Life e mande pra gente!

    00:00 / 00:00
    outros vídeos desta música
    repetir qualidade Automático
    Outros vídeos desta música
    00:00 / 00:00
    Automático
    OK