Cifra Club

Quão Grande É o Meu Deus

Soraya Moraes

Tablatura: Principal
reproducciones 2.122
Tono: G
Intro: G  Em7  C9  D5  G  C/D

Parte 1 de 3

     G
E|---3-----------5-3--------7-5-5-3---------|
B|-3---------0-3----------------------------|
G|---------0-------------0--0---------------|
D|-------0-------------0--------------------|
A|------------------------------------------|
E|-----3-------------3----------------------|

Parte 2 de 3

     Em7
E|-3---------5-3--------7-5-5-3-------------|
B|-------3-3--------------------------------|
G|-----0-------------0----------------------|
D|---0-------------2----0-------------------|
A|------------------------------------------|
E|-0-------------0--------------------------|

Parte 3 de 3

     C9          D5            G        C/D
E|-3-----3---5-5-----5-----3----------0-----|
B|-----3---3-------3---3-3---------3--1-----|
G|---0-----------2---------------0----0-----|
D|-------------0---------------0------0-----|
A|-3----------------------------------------|
E|---------------------------3--------------|

Refrão:

       G
Quão grande é o meu Deus
      D/F#  Em7
Cantarei  quão grande é o meu Deus
         Em/D   C9
E todos hão de ver
       C/D           G   C/D
Quão grande é o meu Deus

Parte 1 de 4

     G                     D/F#
E|---------3---------3----------------------|
B|-------3---------3-----3------------------|
G|-----0---------0-------2------------------|
D|---0---------0---------0------------------|
A|------------------------------------------|
E|-3---------3-----------2------------------|

Parte 2 de 4

     Em7                   Em/D
E|---------3---------3---0------------------|
B|-------3---------3-----0------------------|
G|-----0---------0-------0------------------|
D|---2---------2---------0------------------|
A|------------------------------------------|
E|-0---------0------------------------------|

Parte 3 de 4

     C9          C/D
E|---------3---------0----------------------|
B|-------3---------1------------------------|
G|-----0---------0--------------------------|
D|---2---------0----------------------------|
A|-3----------------------------------------|
E|------------------------------------------|

Parte 4 de 4

     G          C/D
E|---------3--0-----------------------------|
B|-------3----1-----------------------------|
G|-----0------0-----------------------------|
D|---0--------0-----------------------------|
A|------------------------------------------|
E|-3----------------------------------------|

Primeira Estrofe:

    G
Com esplendor de um Rei
    Em7
Em majestade e luz
                    C9
Faz a Terra se alegrar

Faz a Terra se alegrar

    G
Ele é a própria luz
       Em7
E as trevas vão fugir
                C9
Tremer com sua voz
                C/D
Tremer com sua voz

Refrão:

       G
Quão grande é o meu Deus
      D/F#  Em7
Cantarei  quão grande é o meu Deus
         Em/D   C9
E todos hão de ver
       C/D           G   C/D
Quão grande é o meu Deus

Segunda Parte:

     G              D/F#
Por gerações Ele é
   Em7
O tempo está em tuas mãos
    Em7/D     C9
O começo e o fim
             C/D
O começo e o fim

  G                  D/F#
Três se formam em um
 Em7
Filho, Espírito e Pai
             C9
Cordeiro e leão
             C/D D
Cordeiro e leão

Refrão:

       G
Quão grande é o meu Deus
      D/F#  Em7
Cantarei  quão grande é o meu Deus
         Em/D   C9
E todos hão de ver
       C/D           G   C/D
Quão grande é o meu Deus

Terceira Parte:

       G                D/F#
Sobre todo nome é o seu
       Em7             Em/D
Tu és digno do louvor
       C9          C/D           G
Eu cantarei quão grande é o meu Deus
         Db/Eb
É o meu Deus

Refrão:
    
       Ab
Quão grande é o meu Deus
      Eb/G  Fm
Cantarei  quão grande é o meu Deus
                Db
E todos hão de ver
       Db/Eb         Ab
Quão grande é o meu Deus

       Ab
Quão grande é o meu Deus
      Eb/G  Fm
Cantarei  quão grande é o meu Deus
                Db
E todos hão de ver
       Db/Eb         Ab  Db/Eb
Quão grande é o meu Deus

       Ab
Quão grande é o meu Deus
      Eb/G  Fm
Cantarei  quão grande é o meu Deus
                Db
E todos hão de ver
       Db/Eb         Ab  Db/Eb
Quão grande é o meu Deus

       Ab
Quão grande é o meu Deus
      Eb/G  Fm
Cantarei  quão grande é o meu Deus
                Db
E todos hão de ver
       Db/Eb         Ab
Quão grande é o meu Deus

( Db  Db/Eb  Ab )

Dedilhado:

Parte 1 de 4

     Ab                           Eb/G
E|------------------------------------------|
B|-4---4---4---4----4---4---4---4-----------|
G|-5---5---5---5----5---5---5---3-----------|
D|---6---6---6---6----6---6---6---1---------|
A|------------------------------------------|
E|-4----------------4-----------3-----------|

Parte 2 de 4

     Fm
E|------------------------------------------|
B|-1---1---1---1----1---1---1---1-----------|
G|-1---1---1---1----1---1---1---1-----------|
D|---3---3---3---3----3---3---3---3---------|
A|------------------------------------------|
E|-1----------------1-----------------------|

Parte 3 de 4

     Db               Db/Eb
E|------------------------------------------|
B|-2---2---2---2----6---6---6---6-----------|
G|-1---1---1---1----6---6---6---6-----------|
D|---3---3---3---3----6---6---6---6---------|
A|-4----------------6-----------------------|
E|------------------------------------------|

Parte 4 de 4

     Ab               Db/Eb
E|------------------------------------------|
B|-4---4---4---4----6---6---6---6-----------|
G|-5---5---5---5----6---6---6---6-----------|
D|---6---6---6---6----6---6---6---6---------|
A|------------------6-----------------------|
E|-4----------------------------------------|

0 comentarios

    mostrar más comentarios

    ¿Conseguiste tocar?

    67tocaron2aún no

    ¡Graba un vídeo tocando Quão Grande É o Meu Deus y envianoslo!

    00:00 / 00:00
    outros vídeos desta música
    repetirqualidadeautomática
    Outro vídeos desta música
      00:00 / 00:00
      automática
      Capítulos
      • Tocando a Música
      • Dicas iniciais / Equipamentos
      • Acordes da música
      • Tocando Introdução
      • Ensinando Introdução - Parte 1 de 3
      • Ensinando Introdução - Parte 2 de 3
      • Ensinando Introdução - Parte 3 de 3
      • Dicas Primeiro Refrão
      • Tocando Refrão
      • Ensinando Refrão - Parte 1 de 4
      • Ensinando Refrão - Parte 2 de 4
      • Ensinando Refrão - Parte 3 de 4
      • Dicas Primeira Parte - Estrofes
      • Tocando Primeira Parte - Estrofes
      • Ensinando Primeira Parte - Estrofes
      • Ensinando Refrão - Parte 4 de 4
      • Dicas Segundo Refrão
      • Tocando Segundo Refrão
      • Ensinando Segundo Refrão
      • Dicas Segunda e Terceira Partes
      • Tocando Terceira Parte
      • Ensinando Terceira Parte
      • Dicas Modulação
      • Tocando Refrão Final
      • Dedilhado - Parte 1 de 4
      • Dedilhado - Parte 2 de 4
      • Dedilhado - Parte 3 de 4
      • Dedilhado - Parte 4 de 4
      • Dicas Finais / Encerramento
      • Ficha Técnica / Erros de Gravação
      OK