Cifra Club

Yesterday

The Beatles

Tablatura: Tablatura (guitarra)
Tom: Dm
E|----------------|
B|----------------|
G|----------------|
D|-----5--3--3~---|
A|----------------|
E|----------------|
      Yesterday...

E|---------------------------------------|
B|--------------------5--6--5------------|
G|------4---6---7----------------7--7----|
D|--7------------------------------------|
A|---------------------------------------|
E|---------------------------------------|
     All my troubles seem so far away
E|---------------------------------------------
B|---------------------------------------------
G|--7-------7------5--------------------------
D|---------------------8----7----5----8----7~---
A|----------------------------------------------
E|----------------------------------------------

   Now it looks as though they're here to stay

E|-------------------------
B|-------------------------
G|-------------------------
D|-5------7--5------- 7--7-
A|-----8--------5--8-------
E|-------------------------
  Oh I believe in yesterday

E|----------------|
B|----------------|
G|-0--------------|
D|----3--3--------|
A|----------------|
E|----------------|
  Suddenly...


E|-------------------0----1------|
B|-----0-----2-----3--------3--3-|
G|--2----------------------------|
D|-------------------------------|
A|-------------------------------|
E|-------------------------------|

 I'm not half the man I used to be



E|----------------------------------------------------------------|
B|---3-----3--1---------------------------------------------------|
G|----------------3---2---0-----3--2--2-----0---------2----0------|
D|------------------------------------------------3-----------0---|
A|----------------------------------------------------------------|
E|----------------------------------------------------------------|

  There's a shadow hanging   over me,       Oh    yesterday came
 
E|----------------|
B|----------------|
G|-0--------------|
D|----3--3--------|
A|----------------|
E|----------------|
  Suddenly...


E|-----------------------------------------------------
B|----------------5---6-----5-----5---------------------
G|-------------7--------------7------7------5-----7-----
D|-7-----7--------------------------------------------7-
A|------------------------------------------------------
E|------------------------------------------------------
 Why     she   had to go, i dont know, she wouldn't say 

E|--------------------------------------------------
B|---------------5--6--5-------5-------5---6--------
G|------------7-----------7-------7--5---------5----
D|-7------7--------------------------------------8--7
A|--------------------------------------------------
E|--------------------------------------------------
  I      said something wrong now i long for yesterday



E|----------------|
B|----------------|
G|----------------|
D|-----5--3--3~---|
A|----------------|
E|----------------|
      Yesterday...
E|------------------------------------------
B|--------------------5---6---5-------------
G|------4----6----7-----------------7--7----
D|--7---------------------------------------
A|------------------------------------------
E|------------------------------------------
  love was such an  easy   game to play.
E|-----------------------------------
B|-----------------------------------
G|--7--7--5--------------------------
D|------------8--7--5--------8--7~---
A|-----------------------------------
E|-----------------------------------
  Now I need a place to hide a-way
E|---------------------
B|---------------------
G|---------------------
D|-5------7--5---------7--7
A|----8---------5--8------
E|---------------------
  Oh i believe in yesterday


E|-----------------------------------------------------
B|----------------5---6-----5-----5---------------------
G|-------------7--------------7------7------5-----7-----
D|-7-----7--------------------------------------------7-
A|------------------------------------------------------
E|------------------------------------------------------
 Why     she   had to go, i dont know, she wouldn't say 

E|--------------------------------------------------
B|---------------5--6--5-------5-------5---6--------
G|------------7-----------7-------7--5---------5----
D|-7------7--------------------------------------8--7
A|--------------------------------------------------
E|--------------------------------------------------
  I      said something wrong now i long for yesterday



E|----------------|
B|----------------|
G|----------------|
D|-----5--3--3~---|
A|----------------|
E|----------------|
      Yesterday...
E|------------------------------------------
B|--------------------5---6---5-------------
G|------4----6----7-----------------7--7----
D|--7---------------------------------------
A|------------------------------------------
E|------------------------------------------
  love was such an  easy   game to play.
E|-----------------------------------
B|-----------------------------------
G|--7--7--5--------------------------
D|------------8--7--5--------8--7~---
A|-----------------------------------
E|-----------------------------------
  Now I need a place to hide a-way
E|---------------------
B|---------------------
G|---------------------
D|-5------7--5---------7--7
A|----8---------5--8------
E|---------------------
  Oh i believe in yesterday


E|----------------------------------
B|-----------------------------------
G|------------------------------------
D|------7------5-----------------7---7
A|8-------------------5-----8---------
E|-----------------------------------
  mm mm mmmmmmmmmmmmmm mm     mmm
reproducciones 830
Acordes para:
    Composição: Paul McCartney Colaboración y revision:
    • Alex Morello

    0 comentarios

    mostrar más comentarios
    00:00 / 00:00
    outros vídeos desta música
    repetir qualidade Automático
    Outros vídeos desta música
    00:00 / 00:00
    Automático
    OK