Cifra Club

Stay (part. Justin Bieber)

The Kid LAROI

Cifrado: Principal (guitarra y guitarra eléctrica)
Selo Cifra Club: esta cifra foi revisada para atender aos critérios oficiais da nossa Equipe de Qualidade.
tono: Bbm (con acordes en la forma de Am) Capotraste en 1ª casa
[Intro] F  G  Am  Em
        F  G  Am  Em

[tab - dedilhado]

   F          G        Am         Em
E|-------3-------------------3----------------|
B|---0-1---1----0-1------0-1---1----0-1-------|
G|------------------0-------------------0-2---|
D|--------------------------------------------|
A|---------------------0----------------------|
E|-1----------3-------------------0-----------|

   F          G        Am         Em
E|-------3-------------------3----------------|
B|---0-1---1----0-1------0-1---1----0-1-0-----|
G|------------------0---------------------0-2-|
D|--------------------------------------------|
A|---------------------0----------------------|
E|-1----------3-------------------0-----------|

[Primeira Parte] 

F                   
I do the same
      G
Thing I told you that I never would
Am                   
I told you I changed
       Em
Even when I knew I never could
F                   
I know that I can't
        G
Find nobody else as good as you
Am
I need you to stay, need you to stay, hey

F            
I get drunk
 G
Wake up, I'm wasted still
Am        
I realize
     Em
The time that I wasted here
F           
I feel like
     G
You can't feel the way I feel
Am                
I'll be fucked up
Em
If you can't be right here

[Pré-Refrão] 

F   G       
Oh, oooooh
Am  Em      
Oh, oooooh
F   G
Oh, oooooh
Am
I'll be fucked up if you can't be right here

[Refrão] 

F                 
I do the same thing
   G
I told you that I never would
Am                   
I told you I changed
       Em
Even when I knew I never could
F                   
I know that I can't
        G
Find nobody else as good as you
Am                  
I need you to stay
 Em
Need you to stay, hey

F                 
I do the same thing
   G
I told you that I never would
Am                   
I told you I changed
       Em
Even when I knew I never could
F                   
I know that I can't
        G
Find nobody else as good as you
Am                  
I need you to stay
 Em
Need you to stay, here

[Segunda Parte] 

When I'm away from you

I miss your touch
Am                   
   You're the reason
     Em
I believe in love
F                          G
  It's been difficult for me to trust
Am                           Em
   And I'm afraid that I'ma fuck it up

F            
Ain't no way
            G
That I can leave you stranded
Am                       
  'Cause you ain't never
        Em
Left me empty-handed
F                       G
  And you know that I know
                      Am   
That I can't live without you

So baby, stay

[Pré-Refrão] 

F   G       
Oh, oooooh
Am  Em      
Oh, oooooh
F   G
Oh, oooooh
Am
I'll be fucked up if you can't be right here

[Refrão] 

F                 
I do the same thing
   G
I told you that I never would
Am                   
I told you I changed
       Em
Even when I knew I never could
F                   
I know that I can't
        G
Find nobody else as good as you
Am                  
I need you to stay
 Em
Need you to stay, hey

F                 
I do the same thing
   G
I told you that I never would
Am                   
I told you I changed
       Em
Even when I knew I never could
F                   
I know that I can't
        G
Find nobody else as good as you
Am                  
I need you to stay
 Em
Need you to stay, here

[Final] F  G  Am  Em
        F  G  Am  Em

   F          G        Am         Em
E|-------3-------------------3----------------|
B|---0-1---1----0-1------0-1---1----0-1-------|
G|------------------0-------------------0-2---|
D|--------------------------------------------|
A|---------------------0----------------------|
E|-1----------3-------------------0-----------|

   F          G        Am         Em
E|-------3-------------------3----------------|
B|---0-1---1----0-1------0-1---1----0-1-0-----|
G|------------------0---------------------0-2-|
D|--------------------------------------------|
A|---------------------0----------------------|
E|-1----------3-------------------0-----------|
Otros videos de esta canción
    5.214 exhibiciones
      • ½ Tono
      • Am
      • Bbm
      • Bm
      • Cm
      • C#m
      • Dm
      • Ebm
      • Em
      • Fm
      • F#m
      • Gm
      • G#m
    • Agregar a la lista

    Afinación de cifrado

    Afinador online

      OK