Cifra Club

Falta Você

Thiaguinho

Cifrado: Principal (guitarra y guitarra eléctrica)
Selo Cifra Club: esta cifra foi revisada para atender aos critérios oficiais da nossa Equipe de Qualidade.
tono: E
[Intro] E7M(9)  E7(4/9)  A7M  C7M  D7

[Tab - Intro]

E|------------------------------------------|
B|------------------------------------------|
G|------------------------------------------|
D|-9----------------------------------------|
A|------------------------------------------|
E|---7-9-7----------------------------------|

[Primeira Parte]

[Tab - Primeira Parte]

Parte 1 de 6
   E7M(9)        Bm7(9/11)
E|-----------0--------------0---------------|
B|---------7----------2---------------------|
G|-------8----------2---2-------------------|
D|-----6----------0-------0-----------------|
A|---7----------2---------------------------|
E|-0----------------------------------------|

Parte 2 de 6
   A7M     D7(4/9)
E|---------5--------------------------------|
B|-5-6-7---5--------------------------------|
G|-6-6-6---5--------------------------------|
D|-6-6-6---5--------------------------------|
A|-0-------5--------------------------------|
E|------------------------------------------|

Parte 3 de 6
   E7M(9)
E|----0-----------0-------------------------|
B|-7--7--7--7--7--7-----7-------------------|
G|-8--8--8--8--8----8---8-------------------|
D|-6-----6--6--6----------------------------|
A|------------------------------------------|
E|-0-----7-----0------7---------------------|

Parte 4 de 6
   Bm7
E|-----7------------7-----------------------|
B|-7---7---7--7--7--7-----7-----------------|
G|-7---7---7--7--7--------7-----------------|
D|-7-------7--7--7----7---------------------|
A|------------------------------------------|
E|---7-----7-----7------7-------------------|

Parte 5 de 6
   A7M
E|-----0------------0-----------------------|
B|-5---5---5--5--5--5-----5-----------------|
G|-6---6---6--6--6--6-----6-----------------|
D|-6-------6--6--6----6---------------------|
A|---0-----------0--------------------------|
E|---------0------------0-------------------|

Parte 6 de 6
   D7(13)       D7(4/9)  
E|-7---7--7--7--5--5-----5------------------|
B|-7---7--7--7--5--5-----5------------------|
G|-5---5--5--5--5----5---5------------------|
D|------------------------------------------|
A|---5----5-----5------5--------------------|
E|------------------------------------------|

 E7M(9)                            
Juro que eu não sei mais 
                Bm7(9/11)
O que eu vou falar
                A7M
Quando você me perguntar
  D7(4/9)                  E7M(9)
"Tudo bem, como vai a sua vida?"
                                 Bm7
Como fosse uma questão já respondida
                                 A7M
Uma história que ficou mal resolvida
                      
Feito uma mensagem 
               D7(13)  D7(4/9)
Que nunca foi lida

[Pré-Refrão]

[Tab - Pré-Refrão]

   E7M(9)      Bm7         A7M      D7(4/9)
E|----------------------------------5-------|
B|-7---7---7---7---7---7---5--------5-------|
G|-8---8---8---7---7---7---6--------5-------|
D|-6---6---6---7---7---7---6--------5-------|
A|-------------------------0--------5-------|
E|-0---0---0---7---7---7--------------------|

          E7M(9)          
Posso te responder 
         Bm7         A7M
O que você quiser ouvir
          D7(4/9)
Mas a verdade é essa aqui

[Refrão]

          E7M
Falta de tudo, não sei de nada
         E7(4/9)
É só trabalho, volto pra casa
         A7M
Não tem você
 D7(4/9)
Falta você!
              E7M
Não tem seu cheiro no travesseiro
             E7(4/9)
Quando me espalho na nossa cama
         A7M
Não tem você
 C7M     D7(4/9)
Falta você!

          E7M
Falta de tudo, não sei de nada
         E7(4/9)
É só trabalho, volto pra casa
         A7M
Não tem você
 D7(4/9)
Falta você!
              E7M
Não tem seu cheiro no travesseiro
             E7(4/9)
Quando me espalho na nossa cama
         A7M
Não tem você
 C7M     D7(4/9)
Falta você!
 E7M    E7(4/9)  A7M  C7M  D7
La   laiá, laiá

[Primeira Parte]

 E7M(9)                            
Juro que eu não sei mais 
                Bm7
O que eu vou falar
                A7M
Quando você me perguntar
  D7(4/9)                  E7M(9)
"Tudo bem, como vai a sua vida?"
                                 Bm7
Como fosse uma questão já respondida
                                 A7M
Uma história que ficou mal resolvida
                      
Feito uma mensagem 
               D7(4/9)
Que nunca foi lida

[Pré-Refrão]

          E7M(9)          
Posso te responder 
         Bm7         A7M
O que você quiser ouvir
          D7(4/9)
Mas a verdade é essa aqui

[Refrão]

          E7M
Falta de tudo, não sei de nada
         E7(4/9)
É só trabalho, volto pra casa
         A7M
Não tem você
 D7(4/9)
Falta você!
              E7M
Não tem seu cheiro no travesseiro
             E7(4/9)
Quando me espalho na nossa cama
         A7M
Não tem você
 C7M     D7(4/9)
Falta você!

 E7M
Falta de tudo, não sei de nada
         E7(4/9)
É só trabalho, volto pra casa
         A7M
Não tem você
 D7(4/9)
Falta você!
              E7M
Não tem seu cheiro no travesseiro
             E7(4/9)
Quando me espalho na nossa cama
         A7M
Não tem você
 C7M     D7(4/9)
Falta você!
 E7M    E7(4/9)  A7M  C7M  D7
La   laiá, laiá

[Primeira Parte]

[Tab - Final]

Parte 1 de 2
   E7M(9)        Bm7(9/11)
E|-----------0--------------0---------------|
B|---------7----------2---------------------|
G|-------8----------2---2-------------------|
D|-----6----------0-------0-----------------|
A|---7----------2---------------------------|
E|-0----------------------------------------|

Parte 2 de 2
   A7M     D7(13)  D7(4/9)  E7M(9)
E|---------7-------5--------0--------------|
B|-5-------7-------5--------7--------------|
G|-6-------5-------5--------8--------------|
D|-6------------------------6--------------|
A|-0-------5-------5--------7--------------|
E|--------------------------0--------------|
                            ↓

 E7M(9)                            
Juro que eu não sei mais 
                Bm7(9/11)
O que eu vou falar
                A7M
Quando você me perguntar
  D7(13)         D7(4/9)   E7M(9)
"Tudo bem, como vai a sua vida?"
Otros videos de esta canción
    372.313 exhibiciones
    • Simplificar cifrado
      • ½ Tono
      • A
      • Bb
      • B
      • C
      • Db
      • D
      • Eb
      • E
      • F
      • F#
      • G
      • Ab
    • Agregar a la lista

    Afinación de cifrado

    Afinador online

      Capítulos
      • Apresentação
      • Tocando a Música
      • Dicas do Riff da Introdução
      • Ensinando Riff da Introdução
      • Acordes da Introdução
      • Tocando a Introdução
      • Ensinando o Ritmo da Introdução
      • Dicas da Primeira Parte
      • Acordes da Primeira Parte
      • Tocando a Primeira Parte
      • Ensinando a Primeira Parte
      • Tocando o Pré-Refrão
      • Ensinando o Pré-Refrão
      • Dicas do Refrão
      • Acorde do Refrão
      • Tocando o Refrão
      • Ensinando o Ritmo do Refrão
      • Dicas Repetições da Música
      • Tocando o Pré-Refrão e o Refrão Final
      • Dicas do Final
      • Ensinando o Final
      • Encerramento
      OK