Cifra Club

So Terrified Of Your Own Mind

Yellow Days

Cifrado: Principal (guitarra y guitarra eléctrica)
tono: G
[Riff]

E|---------------------------|
B|--------9-------------9/---|
G|---9-------9-----(9)--9/---|
D|--11----------10-----------|
A|---9-----------------------|
E|---------------------------|

E|----------------------4/---|
B|-------4--------------4/---|
G|--4-------4-----(4)--------|
D|--6----------5-------------|
A|--4------------------------|
E|---------------------------|

[Solo]

E|-----------------------------------------|
B|--------------------------9/-------------|
G|---9----------9h11--------9/------10b13--|
D|--11-----9h11------9h10------------------|
A|---9---------------9---------------------|
E|-----------------------------------------|

E|-----------------------------------------|
B|--------4----------------4/--------------|
G|-----------4-------------4/--------------|
D|--4h6---------6\5------------------------|
A|--4--------------------------------------|
E|-----------------------------------------|

I know you're scared
So terrified of your own mind
But oh I would say
There's nothing to be scared of
'Cause you're mine

This world ain't yours
It don't belong to no one
Now I subside fine
But you have to grow from

But your mind
Is the most beautiful mind
That I could find

I know you're scared
So terrified of your own mind
But oh I would say
There's nothing to be scared of
'Cause you're mine

I don't know what's going on
All I know is I need someone
And I know that you know
That I know you

I'll just stay right by your side
Whatever you do

I know you're scared
So terrified of your own mind
Yeah oh I would say
There's nothing to be scared of, babe
Cause your mind's
The most beautiful mind
That I could find

Composición de George van den Broek
Colaboración y revisión:
  • Pedro Gimenez
284 vistas
    • ½ Tono
    • A
    • Bb
    • B
    • C
    • Db
    • D
    • Eb
    • E
    • F
    • F#
    • G
    • Ab
  • Agregar a la lista

    0 comentarios

    Ver todos los comentarios

    ¿Lograste tocar?

    0 Tocaron 0 Aún no

    ¡Graba un video tocando So Terrified Of Your Own Mind y envíanoslo!

    00:00 / 00:00
    Otros videos de esta canción
    Repetir Calidad Automático
    Otros videos de esta canción
    00:00 / 00:00
    Automático
    OK