Cifra Club

Avantasia

Avantasia

Cifrado: Principal (guitarra y guitarra eléctrica)
Selo Cifra Club: esta cifra foi revisada para atender aos critérios oficiais da nossa Equipe de Qualidade.
tono: D
  Intro                                         Verse 1
E----------------------------------------|----|---------------------------
B----------------------------------------|----|-Fill-Bass-----------------
G----------------------------------------|----|---------------------------
D------6---------------------------------|----|---------------------------
A-6----4----4----2--2--2--2--11------6~--|-6~-|---------------------------
E-4---------2----0--0--0--0--9---7---4~--|-4~-|4-4-4-4-4-4-4--0-0-0-0-0-0-

E-------------------------------------------------------------------------
B-------------------------------------------------------------------------
G-------------------------------------------------------------------------
D-------------------------------------------------------------------------
A-------------------------------------------------------------------------
E-2-2-2-2-2-2-2-2-2-2-2-2-2-2---4-4-4-4-4-4-4--0-0-0-0-0-0-0--2-2-2-2-2-2-

                                                        Bridge
E------------------|------------------5---------------|-------------------
B------------------|---------8--------5-------8-------|-------------------
G------------------|---------7---6----6-------7---6---|----7-------9------
D------------------|-----9---9---7--------9---9---7---|------9-------11---
A------------------|-x\--9-------7--------9-------7---|-x\-----10-------12
E-2-2-2-2-2-2-2-2--|-x\--7------(5)-------7-------5---|-x\----------------
                                                           pm....| pm....|

E-------------------------------------------------------------------------
B-------------------------------------------------------------------------
G--11---------9---------7---------7-------9--------11--------9--------7---
D-----12--------11--------9----9----9-------11--------12-------11-------9-
A--------14--------12-------10--------10-------12--------14-------12------
E-------------------------------------------------------------------------
   pm.....|   pm....|  pm...............| pm....|  pm.....| pm.....| pm..|
                                 Fill 1
E-----------------------------||-----------------------------||
B-----------------------------||-----------------------------||
G-------7-------9--------11~--||-----------------------------||
D----9----9-------11----------||-----------7-----------------||
A-10--------10-------12-------||--9--7--5--5--7~--7--9--11---||
E-----------------------------||--7--5--3-----5~--5--7--9----||
  Pm.........| pm.....|

  Chorus
E----------------------------------------------------------------------
B----------------------------------------------------------------------
G----------------------------------------------------------------------
D-----------------------------------------------2---9------------------
A-11---7---9------11----7---9-----11----7---9---2---7--9--11----7---9--
E-9----5---7------9-----5---7-----9-----5---7---0------7--9-----5---7--

E-----------------------------------------------------------------------|
B-----------------------------------------------------------------------|
G-----------------------------------------------------------------------|
D------------------------------2~---------------------------------------|
A-11---7---9-----11----7---9---2~----------6----2----4----2-2-2-2-2-2-2-|
E-9----5---7-----9-----5---7---0~--0~-2~---4----0----2----0-0-0-0-0-0-0-|

                                                      Guitar Solo (Henyo)
E---------------|-----------------|-----------------|-------11h16p11------
B---------------|-----------------|-----------------|----12----------12---
G-Repeat-verse--|--Repeat-bridge--|--Repeat-chorus--|-13----------------13
D---------------|-----------------|-----------------|---------------------
A---------------|-----------------|-----------------|---------------------
E---------------|-----------------|-----------------|---------------------

E-------11h16p11----------11h16p11----------11h16p11----------11h16p11----
B----12----------12----12----------12----12----------12----12----------12-
G-13----------------13----------------13----------------13----------------
D-------------------------------------------------------------------------
A-------------------------------------------------------------------------
E-------------------------------------------------------------------------

E-------11h16p11----------11h16p11---------14p9----------9h14p9----------9
B----12----------12----12---------12----12------11----11--------11----11--
G-13----------------13---------------13------------11--------------11-----
D-------------------------------------------------------------------------
A-------------------------------------------------------------------------
E-------------------------------------------------------------------------

E-h14p9----------9h14p9----------9h14p9----------9h14p9----------9h14p9---
B-------11----11--------11----11--------11----11--------11----11--------11
G----------11--------------11--------------11--------------11-------------
D-------------------------------------------------------------------------
A-------------------------------------------------------------------------
E-------------------------------------------------------------------------

E--------/19p16----------16h19p16----------16h19p16----------16h19p16-----
B----11---------16----16----------16----16----------16----16----------16--
G-11---------------16----------------16----------------16---------------16
D-------------------------------------------------------------------------
A-------------------------------------------------------------------------
E-------------------------------------------------------------------------

E----16h19p16---------16h19p16----------16h19p16----------/21p18----------
B-16---------16----16----------16----16----------16----16--------19----19-
G---------------16----------------16----------------16--------------18----
D-------------------------------------------------------------------------
A-------------------------------------------------------------------------
E-------------------------------------------------------------------------

E-18h21p18----------18h21p18----------18h21p18----------18h21p18----------
B----------19----19----------19----19----------19----19----------19----19-
G-------------18----------------18----------------18----------------18----
D-------------------------------------------------------------------------
A-------------------------------------------------------------------------
E-------------------------------------------------------------------------

                                            Guitar 1           A.H.
E-18h21p18----------18h21p18----------18~-|-------------------------------
B----------19----19----------19----19-----|--16-12-----14-11----12~--14-16
G-------------18----------------18--------|--------13--------11-----------
D-----------------------------------------|-------------------------------
A-----------------------------------------|x\-----------------------------
E-----------------------------------------|x\-----------------------------
         Guitar 2
E------|--------------------------------------||------------------------||
B-17~--|--------------------------------------||------------------------||
G------|--16-13-----15-11----13~--15-16-18~---||---Repeat-chorus-three--||
D------|--------13--------11------------------||-----times-until-the----||
A------|--------------------------------------||------------end---------||
E------|--------------------------------------||------------------------||

--------------------------------------------------------------------------

  Rhythm Guitars During Guitar Solos
E--------------------------------------------------------------------|
B--------------------------------------------------------------------|
G--------------------------------------------------------------------|
D--------------------------------------------------------------------|
A-6--------------------------------4---------------------------------|
E-4-4-4-4-4-4-4-4-4-4-4-4-4-4-4-4--2-2-2-2-2-2-2-2-2-2-2-2-2-2-2-2---|
  pm.............................| pm.............................|

E--------------------------------------------------------------------|
B--------------------------------------------------------------------|
G--------------------------------------------------------------------|
D--------------------------------------------------------------------|
A-6--------------------------------4---------------------------------|
E-4-4-4-4-4-4-4-4-4-4-4-4-4-4-4-4--2-2-2-2-2-2-2-2-2-2-2-2-2-2-2-2---|
  pm.............................| pm.............................|

E------------------------------||
B------------------------------||
G------------------------------|| end
D------------------------------||
A--6--4--2~----7---9---11------||
E--4--2--0~----5---7---9-------||

--------------------------------------------------------------------------

=======================
=TABLATURA 
=======================

A.H. = Artifical Harmonic

pm..| = Palm mute

h = hammer on

p = pull off

/ = slide up

\ = slide down

~ = vibrato

^ = Bend

x\ = Pick Slide

--------
--------
---12--- = Tremolo pick
----/---
----/---
----/---

____________________________________________________
----------------------------------------------------
Open my eyes and see my bleeding wounded hands...
Feeling the pair too hard to stand, to stand
Cought in the ' now and here '
While they are on the way
Hiding imagination, leading us astray...

Use your mind!
You will leave the flesh dimensions behind
Sanity can be the toll
Leading to the core of your soul

WE ARE THE POWER INSIDE, WE BRING YOU FANTASY
WE ARE THE KINGDOM OF LIGHT AND DREAMS,
GNOSIS AND LIFE AVANTASIA!
WE ARE THE POWER INSIDE, WE BRING YOU FANTASY
WE ARE THE KINGDOM OF LIGHT AND DREAMS,
GNOSIS AND LIFE AVANTASIA!
AVANTASIA...

Walking along the icy gallery of pain
Tell me now: what can keep the flame alive?
Lack of imagination-raising up the tower
Where they hold our souls
To take away the power

Use your mind!
You will leave the flesh dimensions behind
Sanity can be the toll

Leading to the core of your soul

WE ARE THE POWER INSIDE, WE BRING YOU FANTASY
WE ARE THE KINGDOM OF LIGHT AND DREAMS,
GNOSIS AND LIFE AVANTASIA!
WE ARE THE POWER INSIDE, WE BRING YOU FANTASY
WE ARE THE KINGDOM OF LIGHT AND DREAMS,
GNOSIS AND LIFE AVANTASIA!

WE ARE THE POWER INSIDE, WE BRING YOU FANTASY
WE ARE THE KINGDOM OF LIGHT AND DREAMS,
GNOSIS AND LIFE AVANTASIA!

Oh-Avantasia-oh
Oh-I hear the voices-oh-yeah...
Oh-into the light-into the light...
Oh-Avantasia-oh...
Otros videos de esta canción
    418 exhibiciones
      • ½ Tono
      • A
      • Bb
      • B
      • C
      • Db
      • D
      • Eb
      • E
      • F
      • F#
      • G
      • Ab
    • Agregar a la lista

    Afinação da cifra

    Afinador online

      Ops (: Contenido disponible solo en portugués.
      OK