Cifra Club

Un x100to (part. Grupo Frontera)

Bad Bunny

Cifrado: Principal (guitarra y guitarra eléctrica)
Selo Cifra Club: esta cifra foi revisada para atender aos critérios oficiais da nossa Equipe de Qualidade.
tono: A
[Refrão]

[Tab - Frase 1]

               Bm
E|------------------------------------------|
B|------------------------------------------|
G|----------6--4----------------------------|
D|-4--6--7----------------------------------|
A|----------4--2----------------------------|
E|-2--4--5----------------------------------|

                 D7M 
Me queda un porciento

Y lo usaré solo para decirte
              C#m  
Lo mucho que lo siento
    (Frase 1)
Que si me ven con otra en una disco
                  Bm
Solo es perdiendo el tiempo

Baby, ¿pa’ qué te miento?
     E 
Eso de que me vieron feliz

No, no es cierto

[Primeira Parte]

                  D 
Ya nada me hace reír

Solo cuando veo las fotos
                           C#m 
Y los vídeos que tengo de ti
                       (Frase 1)
Salí con otra para olvidarte
                                   Bm 
Y tenía el perfume que te gusta a ti

Prendo para irme a dormir

Porque duermo mejor
                      E 
Si sueño que estás aquí

Si supieras que te escribí

No he mandado los mensajes

Siguen todos ahí

   D 
¡Guau!

Qué mucho me ha costa’o

Quizás te hice un favor
                     C#m 
Cuando me fui de tu lado
                     (Frase 1)
Borracho, viendo tus fotos
                                Bm
Me duele ver que tú sí has mejorado

No tienes días grises
                            E 
Ya no te duelen las cicatrices

Y yo pensando si decirte que

[Refrão]

                 D7M 
Me queda un porciento

Y lo usaré solo para decirte
              C#m  
Lo mucho que lo siento
    (Frase 1)
Que si me ven con otra en una disco
                  Bm
Solo es perdiendo el tiempo

Baby, ¿pa’ qué te miento?
     E 
Eso de que me vieron feliz

No, no es cierto

[Segunda Parte]

   A  
Ey,  hace tiempo no pensaba en ti
    E/G#  
Borracho, a tu Insta, me metí
       Bm  
Baby, ya yo sé, que a ti te va bien
        D 
Que de mí tú no quieres saber, ey, ey
A 
  Viviendo en un infierno
                    E/G# 
Que yo mismo incendié
                                   Bm 
Jugando contigo como si fuese el die’
                                  D 
Siento que ya no estoy en tu corazón

Ahora estoy en tus pie’

Rogándote

En el tequila, ahogándome
                         C#m 
Los muchacho’ están invitándome a salir
         (Frase 1)
La paso bien, pero siempre
              Bm
Termino extrañándote

En el tequila, ahogándome, ey
                  E 
Las morritas texteándome, ey

Que dónde es la peda hoy, pero

[Refrão]

                 D7M 
Me queda un porciento

Y lo usaré solo para decirte
              C#m  
Lo mucho que lo siento
    (Frase 1)
Que si me ven con otra en una disco
                  Bm
Solo es perdiendo el tiempo

Baby, ¿pa’ qué te miento?
     E 
Eso de que me vieron feliz

No, no es cierto

[Final] D7M  C#m (Frase 1) 
        Bm  E  A6

[Tab - Final]

E|-12-10-9-------------12-10-9--------------|
B|---------12-12----12---------12-----------|
G|------------------------------------------|
D|------------------------------------------| (2x)
A|------------------------------------------|
E|------------------------------------------|

E|-10-9-7-------------10-9-7----------------|
B|--------10-10----10--------10-------------|
G|------------------------------------------|
D|------------------------------------------| (2x)
A|------------------------------------------|
E|------------------------------------------|

E|-12-10-9-------------12-10-9--------------|
B|---------12-12----12---------12-----------|
G|------------------------------------------|
D|------------------------------------------| (2x)
A|------------------------------------------|
E|------------------------------------------|

E|-10-9-7-------------10-9-7----------------|
B|--------10-10----10--------10-------------|
G|------------------------------------------|
D|------------------------------------------|
A|------------------------------------------|
E|------------------------------------------|

E|-10-9-7---------------10--9--7---5--------|
B|--------10-10----10--------------7--------|
G|---------------------------------6--------|
D|---------------------------------7--------|
A|------------------------------------------|
E|------------------------------------------|
Otros videos de esta canción
    20.913 exhibiciones
    • Simplificar cifrado
      • ½ Tono
      • A
      • Bb
      • B
      • C
      • Db
      • D
      • Eb
      • E
      • F
      • F#
      • G
      • Ab
    • Agregar a la lista

    Afinación de cifrado

    Afinador online

      OK