Cifra Club

Blood Sweat And Tears

BTS

Cifrado: Principal (guitarra y guitarra eléctrica)
tono: Bb (con acordes en la forma de A) Capotraste en 1ª casa
Riff 1:

E|---------3----3-------------------------------------8-6-----6--------------------|
B|-----------6-----------------6/8-6-8-6---4-4-------------8-----6-6-8-6-----------|
G|--5-5----------------5-5----------------------------------------------------8-5--|
D|---------------------------------------------------------------------------------|
A|----3----------------------------------------------------------------------------|
E|--4----------------6-------------------------------------------------------------|

E|--8--6---6---------------|
B|-------8----6-6-8-6------|
G|-------------------------|
D|-------------------------|
A|-------------------------|
E|-------------------------|

Cm    Bb   G#      Bb
Nae pi ttam nunmul nae majimak chumeul
Cm Bb G# Bb
Da gajyeoga ga
Cm Bb G# Bb
Nae pi ttam nunmul nae chagaun sumeul
Da gajyeoga ga
Nae pi ttam nunmul

Cm Bb G# Bb
Nae pi ttam nunmuldo
Nae mom maeum yeonghondo
Neoui geosin geol jal algo isseo
Igeon nareul beolbatge hal jumun

Cm Bb G# Bb
Peaches and cream
Sweeter than sweet
Chocolate cheeks
And chocolate wings
But neoui nalgaeneun akmaui geos
Neoui geu sweet apen bitter bitter
Kiss me apado dwae eoseo nal joyeojwo
Deo isang apeul sudo eopsge
Baby chwihaedo dwae ije neol deurikyeo
Mok gipsugi neoran wiseuki

Cm Bb G# Bb
Nae pi ttam nunmul nae majimak chumeul
Da gajyeoga ga
Nae pi ttam nunmul nae chagaun sumeul
Da gajyeoga ga

Cm Bb G# Bb
Wonhae manhi manhi manhi manhi
Wonhae manhi manhi manhi manhi manhi manhi
Wonhae manhi manhi manhi manhi
Wonhae manhi manhi manhi manhi manhi manhi


Cm Bb G# Bb
Apado dwae nal mukkeojwo naega domangchil su eopsge
Kkwak jwigo nal heundeureojwo naega jeongsin mot charige
Kiss me on the lips lips dulmanui bimil
Neoran gamoge jungdokdwae gipi
Niga anin dareun saram seomgiji moshae
Almyeonseodo samkyeobeorin dogi deun seongbae
Cm Bb G# Bb
Nae pi ttam nunmul nae majimak chumeul
Da gajyeoga ga
Nae pi ttam nunmul nae chagaun sumeul
Da gajyeoga ga

Cm Bb G# Bb
Wonhae manhi manhi manhi manhi
Wonhae manhi manhi manhi manhi manhi manhi
Wonhae manhi manhi manhi manhi
Wonhae manhi manhi manhi manhi manhi manhi

Cm Bb G# Bb
Nareul budeureopge jugyeojwo
Neoui songillo nun gamgyeojwo
Eochapi geobuhal sujocha eopseo
Deoneun domanggal sujocha eopseo
Niga neomu dalkomhae neomu dalkomhae
Neomu dalkomhaeseo

Cm Bb G# Bb
He too was a tempter
He too was a link to the second
His evil world with which I no longer wanted to have anything to do

Nae pi ttam nunmul
Nae pi ttam nunmul
00:00 / 00:00
Otros videos de esta canción
Repetir
Otros videos de esta canción
Compositor no encontrado.
Colaboración y revisión:
3.719 vistas
    • ½ Tono
    • A
    • Bb
    • B
    • C
    • Db
    • D
    • Eb
    • E
    • F
    • F#
    • G
    • Ab
  • Agregar a la lista

    0 comentarios

    Ver todos los comentarios

    ¿Lograste tocar?

    4 Tocaron 20 Aún no

    ¡Graba un video tocando Blood Sweat And Tears y envíanoslo!

    00:00 / 00:00
    OK