Cifra Club

State Of The Art

Chester Bennington

Tab de bajo: Principal
Drop D tuning DADG

intro/chorus
G-------------------------------- ---------------------------------|
D-------------------------------- ---------------------------------|
A---------1-1-1-1-3-3-3-3-------- ---------1-1-1-1-----------------|
D-0-0-0-0-----------------5-5-5-5 -0-0-0-0---------5-5-5-5-3-3-3-3-|

verse
G-------------------------------- ---------------------------------|
D-------------------------------- ---------------------------------|
A---------1-1-1-1---------------- ---------1-1-1-1---------3-3-3-3-|
D-0-0-0-0---------5-5-5-5-3-3-3-3 -0-0-0-0---------5-5-5-5---------|

pre-chorus
G-----------------|
D-----------------|
A-----------------|
D-0---0---0---3-6-|

plz post some comments. i wanna know i've i did a mistake, because i'm not sure if it's right.
Composición de Chester Bennington / DJ Z-Trip
20 vistas

0 comentarios

Ver todos los comentarios

¿Lograste tocar?

0 Tocaron 0 Aún no

¡Graba un video tocando State Of The Art y envíanoslo!

00:00 / 00:00
Otros videos de esta canción
Repetir Calidad Automático
Otros videos de esta canción
00:00 / 00:00
Automático
OK