Cifra Club

La Sinvergüenza (part. Banda MS de Sergio Lizárraga)

Christian Nodal

Cifrado: Principal (guitarra y guitarra eléctrica)
tono: A
[Intro] A  F#m  A7/E  D  Bm  E 
        D  E  A 

[tab - intro]

    A
E|-/12-10-9-12~-----------------14-16-17-16-|
B|---------------------14-15-17-------------|
G|------------------------------------------|
D|------------------------------------------|
A|------------------------------------------|
E|------------------------------------------|

                                F#m
E|-17-16-14-17-16-14---14-12----12-11-10-9--|
B|------------------------------------------|
G|------------------------------------------|
D|------------------------------------------|
A|------------------------------------------|
E|------------------------------------------|

                             
E|------------12-11-10-9------12-12-14------|
B|------------------------------------------|
G|-9-8-7-6----------------------------------|
D|------------------------------------------|
A|------------------------------------------|
E|------------------------------------------|

      A7/E             D
E|-14-14h16-17---17-17-16-14-12-9h10--------|
B|------------------------------------------|
G|------------------------------------------|
D|------------------------------------------|
A|------------------------------------------|
E|------------------------------------------|

             Bm                      E
E|----------------------------17-17-16-16---|
B|-------14-15-17-17-15-15------------------|
G|-14-16------------------------------------|
D|------------------------------------------|
A|------------------------------------------|
E|------------------------------------------|

                                       D
E|-16-14------------------14----------------|
B|-------17------17-17-17----17-15-14-15----|
G|---------------------------------------14-|
D|------------------------------------------|
A|------------------------------------------|
E|------------------------------------------|

                         E
E|----------------------14------------------|
B|-15-15-14-15-14-15-17----17-17------------|
G|------------------------------------------|
D|------------------------------------------|
A|------------------------------------------|
E|------------------------------------------|

                      A
E|------------------------------------------|
B|-14----14-15-17-14------------------------|
G|----16-------------16-14------------------|
D|------------------------------------------|
A|------------------------------------------|
E|------------------------------------------|

( E  D  C#m  Bm  A )

[Primeira Parte]
 
      A
Cantinero, mil disculpas

Perdone que le interrumpa
        F#m
Pero quiero sacarme del pecho

        D
Sé que no soy el primero
         Bm
Que le viene con el cuento
       E
De que el corazón en mil se lo partieron

    A
Hablemos de la culpable

Que hizo algo imperdonable
      F#m
Esa que duerme tranquila

Después de tantas mentiras

        D                         Bm
¿Cómo fue capaz de decir que me amaba
       E
Y cambiarme por otro como si nada?

[Refrão]

    A                                 F#m
Me dijo que como a ningún otro me amaría
                            D
Y que ella, sin mí, se moriría, ah-ah
         Bm                  E
Y la cabrona sigue viva todavía
  
         A                            F#m
Y yo le dije que si se iba no me dolería, ah-ah
                       D
Y que rápido la olvidaría
 Bm                     E
Yo pensando que me rogaría

                D                      E
Pero la sinvergüenza se dio la media vuelta
                    A   E
Y no ha vuelto todavía

( A  F#m  A7/E  D  Bm  E )
( D  E  A )
( E  D  C#m  Bm )

[Refrão]

    A                                 F#m
Me dijo que como a ningún otro me amaría
                            D
Y que ella, sin mí, se moriría, ah-ah
         Bm                  E
Y la cabrona sigue viva todavía
  
         A                            F#m
Y yo le dije que si se iba no me dolería, ah-ah
                       D
Y que rápido la olvidaría
 Bm                     E
Yo pensando que me rogaría

                D                      E
Pero la sinvergüenza se dio la media vuelta
                    A   D  E  A
Y no ha vuelto todavía
00:00 / 00:00
Otros videos de esta canción
Repetir
Otros videos de esta canción
Composición de Christian Nodal / Edgar Barrera / Elena Rose / Horacio Palencia
Colaboración y revisión:
  • Getúlio Vasconcelos
155 vistas
    • ½ Tono
    • A
    • Bb
    • B
    • C
    • Db
    • D
    • Eb
    • E
    • F
    • F#
    • G
    • Ab
  • Agregar a la lista

    0 comentarios

    Ver todos los comentarios

    ¿Lograste tocar?

    0 Tocaron 0 Aún no

    ¡Graba un video tocando La Sinvergüenza (part. Banda MS de Sergio Lizárraga) y envíanoslo!

    00:00 / 00:00
    OK