Cifra Club

Quero Conhecer Jesus (O Meu Amado É o Mais Belo)

Cia. Salt

Tablatura: Principal (guitarra)
reproducciones 11.011
Tono: A (con acordes en la forma de G) Capo en 2ª casa
[Intro] C9  D4(9)  Em7  Bm7

         C9                   D4(9)
O meu orgulho me tirou do jardim
          Em7                      Bm7
Tua humildade colocou o jardim em mim
            C9
E se eu vender tudo o que tenho
     D4(9)                Em7  Bm7
Em troca do amor eu falharia
         C9                 D4(9)
Pois o amor não se compra, nem se merece
    Em7               Bm7
O amor se ganha, de graça o recebe

     C9              D4(9)
Eu quero conhecer Jesus
     Em7             Bm7
Eu quero conhecer Jesus (e ser achado Nele)
     C9              D4(9)
Eu quero conhecer Jesus
     Em7             Bm7
Eu quero conhecer Jesus

( C9  D4(9)  Em7  Bm7 )
( C9  D4(9)  Em7  Bm7 )

         C9                   D4(9)
O meu orgulho me tirou do jardim
          Em7                      Bm7
Tua humildade colocou o jardim em mim
            C9
E se eu vender tudo o que tenho
     D4(9)                Em7  Bm7
Em troca do amor eu falharia
         C9                 D4(9)
Pois o amor não se compra, nem se merece
    Em7               Bm7
O amor se ganha, de graça o recebe

     C9              D4(9)
Eu quero conhecer Jesus
     Em7             Bm7
Eu quero conhecer Jesus (e ser achado Nele)
     C9              D4(9)
Eu quero conhecer Jesus
     Em7             D/F#
Eu quero conhecer Jesus

      C9            Em7
Meu Amado é o mais belo
       D/F#  G          D/F#
Entre mi___lhares e milhares
      C9            Em7
Meu Amado é o mais belo
       D/F#  G          D/F#
Entre mi___lhares e milhares
      C9            Em7
Meu Amado é o mais belo
       D/F#  G          D/F#
Entre mi___lhares e milhares

[Solo] C9  Em7  D/F#  G  D/F#
       C9  Em7  D/F#  G  D/F#

E|------------------------------------|
B|--14---17---14---21---10---17---9---|
G|------------------------------------|
D|------------------------------------|
A|------------------------------------|
E|------------------------------------|

E|------------------------------------|
B|--14---17---14---21---10---17---9---|
G|------------------------------------|
D|------------------------------------|
A|------------------------------------|
E|------------------------------------|

( C9  D4(9)  Em7  Bm7 )

E|------------------------------------|
B|-3-5---3-5---3-5---3-5-7-8-7-8-12-7-|
G|------------------------------------|
D|------------------------------------|
A|-2-3---2-3---2-3---2-3-5-7-5-7-10-5-|
E|------------------------------------|

    C9             D4(9)  Em7      Bm7
Yeshu-u-u-u-a, a-a-a------a, a-a-a-a
    C9             D4(9)  Em7      Bm7
Yeshu-u-u-u-a, a-a-a------a, a-a-a-a
    C9             D4(9)  Em7      Bm7
Yeshu-u-u-u-a, a-a-a------a, a-a-a-a

      C9            Em7
Meu Amado é o mais belo
       D/F#  G          D/F#
Entre mi___lhares e milhares
      C9            Em7
Meu Amado é o mais belo
       D/F#  G          D/F#
Entre mi___lhares e milhares
      C9            Em7
Meu Amado é o mais belo
       D/F#  G          D/F#
Entre mi___lhares e milhares

[Final] C9  D4(9)  Em7  Bm7

E|------------------------------------|
B|-3-5---3-5---3-5---3-5-7-8-7-8-12-7-|
G|------------------------------------|
D|------------------------------------|
A|-2-3---2-3---2-3---2-3-5-7-5-7-10-5-|
E|------------------------------------|

0 comentarios

    mostrar más comentarios

    ¿Conseguiste tocar?

    92tocaron38aún no

    ¡Graba un vídeo tocando Quero Conhecer Jesus (O Meu Amado É o Mais Belo) y envianoslo!

    00:00 / 00:00
    outros vídeos desta música
    repetirqualidadeAutomático
    Outro vídeos desta música
      00:00 / 00:00
      OK