Cifra Club

Viva La Vida

Coldplay

Cifrado: Aula-fingerstlye (guitarra y guitarra eléctrica)
tono: A
[Intro][2x] 

Parte 01 De 02

   C                C/D
E|------------------------------------------|
B|-1---1---1---1-1----1---1-1---1-----------|
G|-0---0---0---0-0----0---0-0---0-----------|
D|------------------0---0---0---0-----------|
A|-3---3---3---3----------------------------|
E|------------------------------------------|

Parte 02 De 02

   G                Em
E|------------------------------------------|
B|-0---0---0---0-0----0---0-0---0-----------|
G|-0---0---0---0-0----0---0-0---0-----------|
D|------------------------------------------|
A|------------------------------------------|
E|-3---3---3---3----0---0---0---0-----------|

[Primeira Parte] 

Parte 01 De 04

   C7M              D
E|------------------------------------------|
B|-0-----------1----------------------------|
G|-0-------------2------------2---0---------|
D|------------------0---0---0---0-----------|
A|-3---3---3---3----------------------------|
E|------------------------------------------|

Parte 02 De 04

   G                Em
E|------------------------------------------|
B|---------0----------0---0-0-0-0-----------|
G|-2---2-0------------0---0-0-0-0-----------|
D|-------------0-2--------------------------|
A|------------------------------------------|
E|-3---3---3---3----0---0---0---0-----------|

Parte 03 De 04

   C7M              D
E|------------------------------------------|
B|-0-----------1----------------------------|
G|-0-------------2------------2---0---------|
D|------------------0---0---0---0-----------|
A|-3---3---3---3----------------------------|
E|------------------------------------------|

Parte 04 De 04

   G                Em
E|------------------------------------------|
B|-------------0----------------------------|
G|-2---2---2-----0--------------------------|
D|--------------------2---------------------|
A|------------------------------------------|
E|-3---3---3---3----0---0---0---0-----------|

[Refrão] 

Parte 01 De 06

   C                D
E|-0---0---0---0----------------------------|
B|-1---1---1-3---3--------0---1-------------|
G|-0---0---0----------2---------------------|
D|------------------0---0---0---0-----------|
A|-3---3---3---3----------------------------|
E|------------------------------------------|

Parte 02 De 0

   G                Em
E|------------------------------------------|
B|-3---3---3-0-3-0--------------------------|
G|-0---0---0------------------0-------------|
D|--------------------2---4-----------------|
A|------------------------------------------|
E|-3---3---3---3----0---0---0---0-----------|

Parte 01 De 06

   C                D
E|-0---0---0---0----------------------------|
B|-1---1---1-3---3--------0---1-------------|
G|-0---0---0----------2---------------------|
D|------------------0---0---0---0-----------|
A|-3---3---3---3----------------------------|
E|------------------------------------------|

Parte 02 De 06

   G                Em
E|------------------------------------------|
B|-3---3---3-0-3-0--------------------------|
G|-0---0---0------------------0-------------|
D|--------------------2---4-----------------|
A|------------------------------------------|
E|-3---3---3---3----0---0---0---0-----------|

Parte 03 De 06

   C                D
E|-0---0---0---0-2----2---2-----------------|
B|-1---1---1-3--------3---3-----------------|
G|-0---0---0----------2---2-----------------|
D|------------------0---0---0---0-----------|
A|-3---3---3---3----------------------------|
E|------------------------------------------|

Parte 04 De 06

   G                Em
E|------------------------------------------|
B|-3---3---3-3-1-1----0---0-----0-0---------|
G|-0---0---0--------------------------------|
D|------------------------------------------|
A|------------------------------------------|
E|-3---3---3---3----0---0---0---0-----------|

Parte 05 De 06

   C7M              D
E|------------------------------------------|
B|-0-0---------1----------------------------|
G|-0-------------2------------2---0---------|
D|------------------0---0---0---0-----------|
A|-3---3---3---3----------------------------|
E|------------------------------------------|

Parte 06 De 06

   G                Em
E|------------------------------------------|
B|---------0--------------------------------|
G|-------0-------0--------------------------|
D|-4-4---------4----------------------------|
A|------------------------------------------|
E|-3---3---3---3----0---0---0---0-----------|
00:00 / 00:00
Otros videos de esta canción
Repetir
Otros videos de esta canción
Composición de Chris Martin / Guy Berryman / Jonny Buckland / Will Champion
Colaboración y revisión:
  • Thiago Almeida
70 vistas
    • ½ Tono
    • A
    • Bb
    • B
    • C
    • Db
    • D
    • Eb
    • E
    • F
    • F#
    • G
    • Ab
  • Agregar a la lista

    0 comentarios

    Ver todos los comentarios

    ¿Lograste tocar?

    4 Tocaron 6 Aún no

    ¡Graba un video tocando Viva La Vida y envíanoslo!

    00:00 / 00:00
    OK