Cifra Club

Change (in the house of flies)

Deftones

Cifrado: Principal (guitarra y guitarra eléctrica)
tono: Db
Tuning - "Drop C" - CGCFAD
 ... = repeat

--.--

--8-- = staccato

Listen for Exact Strum

Verse:


Let low notes ring

D-----------------------------------------
A-----------------------------------------
F------1010---1010------------------------
C------------------------88-87---8-8/7-7--
G--0-0-8-8--0-8-8----5-5-------5----------
C--0-0------0--------5-5-------5----------


bass line:

F--------------------------------------------------------------
C--------------------------------------------------------------
G------------------.------------------------------.------------
C-0h1212-0h1212-0h12-0--0h1212-10/12--8\55-0h55-0h5-5-0h55-3/5-


Chorus:


"I watched you change..."

D--------------------------------------------------
A--3-----------------------------------------------
F--2-----------------------10----------------------
C--0-----------------------8-----------------------
G--0-----------------------8-----------------------
C--0.......................8.....................--


2nd Guitar (Chino)         these are all 10's not 1's and 0's

D-----------------------------------------------------
A-----------------------------------------------------
F--10-----------------------101010101010101010101010--
C---------------------------88881010108881010108888---
G--8------------------------88888888888888888888888---
C--0........................88888888888888888888888---


bass line

these are 12's and 10's not 1's & 2's     these are 1's

F------------------------------------------------------------
C------------------------------------------------------------
G-----------------------------------------111111---11-11-1---
C-/121212-10/1212-10/12-12-10/1212-10/12--------555--3--3----


2nd Chorus:


"it's like you never"

D------------------------
A------------------------
F------------------------
C--3---------0-----------
G--3---------0-----------
C--3.........0.......----


bass line:

F------------------------
C------------------------
G------------------------
C--3.........0.......----


Breakdown:

"I look at the cross..."

D---------------------------
A---------------------------
F---------------------------
C------888-777-----77-------  repeat with slight variation
G--------------888----88----
C--555-------------------0--


bass line           last time

F-----------------|-----------
C-----------------|-----------
G-----------------|-----------
C--0--------------|--/12--0---

let ring...


"I watched a change..."

D--------------------------------------------------
A--3-----------------------------------------------
F--2-----------------------------------------------
C--0-----------------------5-----------------------
G--0-----------------------5-----------------------
C--0.......................5.....................--


bass line:

F-------------------------------------------------
C-------------------------------------------------
G-------------------------------------------------
C--0......................5.....................--


"and you feel alive..."

D--0----------------------8-----------------------
A--3----------------------12----------------------
F--2----------------------10----------------------
C--0----------------------8-----1010---10---------
G--0----------------------8-----------------------
C--0......................8.....................--


bass line:

F-------------------------------------------------
C-------------------------------------------------
G-------------------------------------------------
C--0......................8.....................--

D---------------------------------
A---------------------------------
F--10101010101010-----------------
C-----------------8-8-8-8-8-888---
G--8-8-8-8-8-888--5-5-5-5-5-555---
C--0-0-0-0-0-000--5-5-5-5-5-555---

repeat riffs as necessary
Composición de Deftones
Colaboración y revisión:
  • Rafael Silva
586 vistas
    • ½ Tono
    • A
    • Bb
    • B
    • C
    • Db
    • D
    • Eb
    • E
    • F
    • F#
    • G
    • Ab
  • Agregar a la lista

    0 comentarios

    Ver todos los comentarios

    ¿Lograste tocar?

    0 Tocaron 0 Aún no

    ¡Graba un video tocando Change (in the house of flies) y envíanoslo!

    00:00 / 00:00
    Outros vídeos desta música
    Repetir Calidad Automático
    Outros vídeos desta música
    00:00 / 00:00
    Automático
    OK