Cifra Club

En Tu Presencia

En Espiritu Y En Verdad

Cifrado: Versão 4 (guitarra y guitarra eléctrica)
tono: D

INTRO
E|-------14-------|
B|-17-15----15----|
G|-------------14-(x2)|

E|-------14-------|
B|-17-15----17----|
G|-------------12-(x2)|

E|-------------------------------------17-15--------------|
B|-12--12-14--14-15--15-17--17---------------19-17-15-----|
G|--------------------------------------------------------|
D|-----------------------------16---------------------16--|

Verso 1:
D
Me encuentro aquí alegre estoy
Em                            G
Todo temor Tú lo limpiarás Señor
             D
En tu presencia

Verso 2:
D
Mis ganancias no brillan más
  Em                      G
Cada corona a Ti la rendiré
             D
En tu presencia

Precoro:
Bm          A                  G
Tiembla el cielo al ver tu grandeza
Bm        A                    G
Reinos y reyes se asombran de Ti


Coro:
            D             A
En Tu presencia, nos consumes
            Bm         A                  G
En Tu presencia el cielo y la tierra uno son
           D               A
En Tu presencia renuevas todo
          Bm      A                  G
En Tu presencia todo se postra ante Ti.

G  O: (no está dificil, ni es nada del otro mundo, pero cómo
       me late este solo!)
(3:57)
E|---------------------------------------------------|
B|-17-15--17-17--19-----19-15-14--15-15s17--15v-15v--|
G|---------------------------------------------------|

E|----------------------17--15-14-15-14-------19v--17v-|
B|-12--12-14--14-15---------------------15-------------|
G|-----------------------------------------------------|

(4:16)
E|-17-17-------------------|------------------|
B|-------17--17--17b--17v--|-14--14-15--15-17-|
G|-------------------------|------------------|

E|----------------------19v--|
B|-12--12-14--14-15----------| y termina con un rasgueo en D
G|---------------------------|

Puente:
        Bm         A         G   Em       F#m
//Espléndido, Hermoso, Glorioso, Majestad sin Igual(G-A para entrar
                                                          al coro))

v: vibrato (tocar la nota y mover el dedo arriba-abajo, rápido)
B: bend (tocar la nota y estirar la cuerda hacia arriba, con tal de
         que suene como la nota del siguiente traste)
00:00 / 00:00
Otros videos de esta canción
Repetir
Otros videos de esta canción
Composición de Kelly Spiker
3 exhibiciones
    • ½ Tono
    • A
    • Bb
    • B
    • C
    • Db
    • D
    • Eb
    • E
    • F
    • F#
    • G
    • Ab
  • Agregar a la lista
    00:00 / 00:00
    OK