Cifra Club

Where The Bums Go

Fun Lovin Criminals

Cifrado: Versão 2 (guitarra y guitarra eléctrica)
Selo Cifra Club: esta cifra foi revisada para atender aos critérios oficiais da nossa Equipe de Qualidade.
tono: Fm
Intro/verse

E|--------------------------------------|
B|--------------------------------------|
G|----6-5-----7-5----6-5-9-8-7-7-6-5----|
D|-7--6-5--7--7-5--7-6-5-9-8-7-7-6-5----|
A|-7--4-3--7--5-3--7-4-3-7-6-5-5-4-3----|
E|-5-------5-------5--------------------|

Chorus x3

E|----------------------------------|
B|----------------------------------|
G|-----------------7-7-7-7-7-7-7-7--|
D|-7-7-7-7-7-7-7-7-7-7-7-7-7-7-7-7--|
A|-7-7-7-7-7-7-7-7-5-5-5-5-5-5-5-5--|
E|-5-5-5-5-5-5-5-5------------------|

repeated numurus times before

E|------------------------------|
B|------------------------------|
G|-5-5-5-5-5-5-5-5-5-5-5-5--5/--|
D|-5-5-5-5-5-5-5-5-5-5-5-5--5/--|
A|-7-7-7-7-7-7-7-7-7-7-7-7--7/--|
E|------------------------------|

BDA K

Is exactly the same as the chorus but without the end chord

E|----------------------------------|
B|----------------------------------|
G|-----------------7-7-7-7-7-7-7-7--|
D|-7-7-7-7-7-7-7-7-7-7-7-7-7-7-7-7--|
A|-7-7-7-7-7-7-7-7-5-5-5-5-5-5-5-5--|
E|-5-5-5-5-5-5-5-5------------------|

"Buuuuuuuummmmmmmms!....."

End

x16
E|----------------------------------|
B|----------------------------------|
G|-----------------7-7-7-7-7-7-7-7--|
D|-7-7-7-7-7-7-7-7-7-7-7-7-7-7-7-7--|
A|-7-7-7-7-7-7-7-7-5-5-5-5-5-5-5-5--|
E|-5-5-5-5-5-5-5-5------------------|

and on the last time add

E|----------------------------------|
B|----------------------------------|
G|----------------------------------|
D|-5~~~~~~~~~~~~~~~~~~~~~~~--5| !-----|
A|-5~~~~~~~~~~~~~~~~~~~~~~~--5| !-----|
E|-7~~~~~~~~~~~~~~~~~~~~~~~--7| !-----|
Plenty 'o' feedback and a light vibrato for the ending


Intro x2

Verse x2

I Feel it's Pull
It's caressing claws
Dead end blocks
Graffiti walls
It Permeates
It Desecrates
It looks like shit but it taste great

Chorus x3

Where the bums go wo oh oh oh
Where the bums go wo oh oh oh
Where the bums go wo oh oh oh

Verse x2

See it's cliental come straight from hell
With missing limbs and whooo some funky smells
My bacon bits were not like this
I curse the day it passed my lips

Chorus x3

Where the bums go wo oh oh oh
Where the bums go wo oh oh oh
Where the bums go wo oh oh oh
Otros videos de esta canción
    0 exhibiciones
      • ½ Tono
      • Am
      • Bbm
      • Bm
      • Cm
      • C#m
      • Dm
      • Ebm
      • Em
      • Fm
      • F#m
      • Gm
      • G#m
    • Agregar a la lista

    Afinação da cifra

    Afinador online

      Ops (: Contenido disponible solo en portugués.
      OK