Cifra Club

He Hit me (and it felt like a kiss)

Hole

Cifrado: Principal (guitarra y guitarra eléctrica)
tono: G
e|----------------------------------------------------------------------
B|----------------------------------------------------------------------
G|----------------------------------------------------------------------
D|---5-5-5-5-5-5-5//7-7-7-7-7-7-7---------------------------------------
A|---5-5-5-5-5-5-5//7-7-7-7-7-7-7---------------------------------------
E|---3-3-3-3-3-3-3//5-5-5-5-5-5-5---------------------------------------

repeat this for the intro and most of the verses, sliding from a powerchord
G to an A and then back to a G etc.

verse Am-C-G 

E|-0--0---3------------------------------------------------------------------
B|-1--1---3------------------------------------------------------------------
G|-2--0---0------------------------------------------------------------------
D|-2--2---0------------------------------------------------------------------
A|----3---2------------------------------------------------------------------
E|--------3------------------------------------------------------------------


Lyrics

He hit me and it felt like a kiss
He hit me but it didn't hurt me
He couldn't stand to hear me say
That I'd been with someone new
And when I told him I had been untrue

He hit me and it felt like a kiss
He hit me and I knew he loved me
'Cause if he didn't care for me
I could've never made him mad
He hit me and I was glad

Baby won't you stay
Baby won't you stay
Baby won't you stay
Baby won't you stay

He hit me and it felt like a kiss
He hit me and I knew I loved him
'Cause when he took me when he took me when he took me in his arms
With all the tenderness there is
He hit me and he made me feel

Baby won't you stay
Baby won’t you stay
Baby won’t you stay
Baby won’t you stay
Baby won’t you stay
Baby won’t you stay
Baby won’t you stay
Baby won’t you stay
Baby won’t by won’t you stay
Baby won’t you stay
Baby won’t you stay
Baby won’t you stay
Composición de Carole King / Gerry Goffin
Colaboración y revisión:
  • Nayane Davin
94 vistas
    • ½ Tono
    • A
    • Bb
    • B
    • C
    • Db
    • D
    • Eb
    • E
    • F
    • F#
    • G
    • Ab
  • Agregar a la lista

    0 comentarios

    Ver todos los comentarios

    ¿Lograste tocar?

    0 Tocaron 0 Aún no

    ¡Graba un video tocando He Hit me (and it felt like a kiss) y envíanoslo!

    00:00 / 00:00
    Outros vídeos desta música
    Repetir Calidad Automático
    Outros vídeos desta música
    00:00 / 00:00
    Automático
    OK