Cifra Club

Pode Ir Embora / Hoje Sonhei com Você / Então Valeu (pout-pourri)

Icaro e Gilmar

Cifrado: Principal (guitarra y guitarra eléctrica)
tono: A
[Intro] C Dm F G C

            C                  Dm
E|-----0-1---3--3----1--1--1----3--3----1--1--1--------|
B|1--3--------1--1----1--1--1----1--1----1--1--1-------|
G|-------------2--2----2--2--2----2--2----2--2--2------|
D|-----------------------------------------------------|
A|-----------------------------------------------------|
E|-----------------------------------------------------|

         F                           G                C
E|--------0-------------------------------------------0|
B|-3--------------1-----1-----1----------------------1-|
G|---0-------0------0-----0-----0-----------0-------0--|
D|-----2-------2------2-----2-----2-------2---2----2---|
A|--------------------------------------3---------3----|
E|------------------------------------3----------------|


C                               Dm
Procurei em outros braços sentir seu calor
      F                               C       G
Procurei em outras bocas sentir seu sabor
     Am                            Dm
Procurei em outro corpo um perfume seu
        F      G            C
Mas meu coração não te esqueceu
    G       Am            F                     G
O amor é assim chega de repente faz a gente se perder
Am                F                      G                      C  
  Tá marcado em mim não sai do pensamento querendo me enlouquecer
             F
Pode ir embora deixe as lembranças que restaram de nós dois
                C
Que a qualquer hora vai se arrepender e a saudade vem depois
        G                                                       F          
Não adianta segue seu caminho sem lembrar que um dia eu fui o amor
        C    C7
Da sua vida
             F
Vai fecha a porta faz como se tudo não passasse de ilusão
        C
Me ignora, destrói o sentimento e vai atrás de outra paixão
          G                                                    
Esquece tudo prometo não chorar e nem tentar te convencer que um
 F    G     C
Dia amei você

( F  C  Am  G )
( F  C  Am  G )

    F                       C
E|-----------------------------------------------------|
B|--1--------1--------1------1------1-------1----------|
G|----2--------2--------2------0------0-------0--------|
D|------3--------3---------------2------2--------------|
A|-----------------------------------------------------|
E|-----------------------------------------------------|

   Am                          G
E|-----------------------------3----888--777--555--3---|
B|--1--------1--------1--------3-----------------------|
G|----2--------2--------2------0-----------------------|
D|------2--------2-------------0-----------------------|
A|-----------------------------2-----------------------|
E|-----------------------------3-----------------------|

    F                       C
E|-----------------------------------------------------|
B|--1--------1--------1------1------1-------1----------|
G|----2--------2--------2------0------0-------0--------|
D|------3--------3---------------2------2--------------|
A|-----------------------------------------------------|
E|-----------------------------------------------------|

   Am                          G
E|-----------------------------3----888--777--555--3---|
B|--1--------1--------1--------3-----------------------|
G|----2--------2--------2------0-----------------------|
D|------2--------2-------------0-----------------------|
A|-----------------------------2-----------------------|
E|-----------------------------3-----------------------|


F                   C
  Hoje sonhei com você
Am                G
  E era noite de lua cheia
F                    C
  No sonho eu te beijei
Am                  G
  A lua, eu, você e as estrelas

F                    C
  Hoje sonhei com você
Am                   G
  Ninguém podia nos separar
F                 C
  Só eu podia te ver
Am                       G
  Foi tão real não quero acordar
F                          G
Um sonho de amor assim não pode terminar

C
Quando acordei abri os olhos e te vi
    Am
Não era lua cheia mas você estava ali
   F
Notei que o brilho das estrelas
Dm                    G    
Era o brilho desse olhar

C
E quando te beijei você tão linda me abraçou
Am
E disse assim sorrindo "bom dia meu amor!”
   F                   Dm                  G
A minha vida é um sonho por poder te encontrar

E por você me amar

( F  Am  C  G )
( F  C  Am  G )


    F                       C
E|-----------------------------------------------------|
B|--1--------1--------1------1------1-------1----------|
G|----2--------2--------2------0------0-------0--------|
D|------3--------3---------------2------2--------------|
A|-----------------------------------------------------|
E|-----------------------------------------------------|

   Am                          G
E|-----------------------------3----888--777--555--3---|
B|--1--------1--------1--------3-----------------------|
G|----2--------2--------2------0-----------------------|
D|------2--------2-------------0-----------------------|
A|-----------------------------2-----------------------|
E|-----------------------------3-----------------------|

    F                       C
E|-----------------------------------------------------|
B|--1--------1--------1------1------1-------1----------|
G|----2--------2--------2------0------0-------0--------|
D|------3--------3---------------2------2--------------|
A|-----------------------------------------------------|
E|-----------------------------------------------------|

   Am                          G
E|-----------------------------3-----------------------|
B|--1--------1--------1--------3-----------------------|
G|----2--------2--------2------0-----------------------|
D|------2--------2-------------0-----------------------|
A|-----------------------------2-----------------------|
E|-----------------------------3-----------------------|


[Primeira Parte]

C
 Te dei o meu amor, você não quis cuidar
G
 Eu senti o sabor da lágrima rolar
Am
 Agora senta aqui, você vai escutar
F                       G
 Tudo que me fez sofrer, tudo que me fez passar

[Pré-Refrão]

C
 Ao encontrar você eu me perdi de mim
G
 O que é que eu fui querer, por que te amei assim?
Am
 Sem alma e coração, você é tão ruim
F                     G                     F  C  F  G
 E agora que eu to bem você quer voltar pra mim

[Refrão]

        C                               G
Então valeu te ver assim pedindo pra voltar
                              Am
Valeu demais te ver no meu lugar
                              F                  G
Valeu te ver sofrer o que sofri chorar o que chorei
C  F   G   C                               G
Então va_leu te ver, mas eu preciso te falar
                                 Am
To bem melhor e alguém no seu lugar me faz feliz
              F                  G
Que sabe me amar, então valeu demais te encontrar

[Final] C  G  Am  F  C
00:00 / 00:00
Otros videos de esta canción
Repetir
Otros videos de esta canción
Compositor no encontrado.
Colaboración y revisión:
  • Pietro Henrique"
  • Tarcisio Werner
  • Matheus Rossa
237 vistas
    • ½ Tono
    • A
    • Bb
    • B
    • C
    • Db
    • D
    • Eb
    • E
    • F
    • F#
    • G
    • Ab
  • Agregar a la lista

    0 comentarios

    Ver todos los comentarios

    ¿Lograste tocar?

    7 Tocaron 0 Aún no

    ¡Graba un video tocando Pode Ir Embora / Hoje Sonhei com Você / Então Valeu (pout-pourri) y envíanoslo!

    00:00 / 00:00
    OK