Cifra Club

Overkill

Ill Bill

Tab de bajo: Principal
Selo Cifra Club: esta cifra foi revisada para atender aos critérios oficiais da nossa Equipe de Qualidade.
G|-----------------------------------------------------------------------------|
D|-----------------------------------------------------------------------------| 
A|---2-2--5-5--2-2----2-2--5-5--2-2--------------------------------------------|   
E|------------------------------------------5-5--2-2-2-2-----2-2-2-2--5-5-5-5--|

G|-----------------------------------------------------------------------------|
D|-----------------------------------------------------------------------------| 
A|---2-2--5-5--2-2----2-2--5-5--2-2--------------------------------------------|   
E|------------------------------------------5-5--2-2-2-2-----2-2-2-2--5-5-5-5--|
Otros videos de esta canción
    42 exhibiciones

    Afinação da cifra

    Afinador online

    Ops (: Contenido disponible solo en portugués.
    OK