Cifra Club

Summer Romance (Anti-gravity Love Song)

Incubus

Cifrado: Principal (guitarra y guitarra eléctrica)
tono: B
(intro)
(funk)

E |----------------------|-----------------------
B |----------------------|-----------------------
G |----------------------|-----------------------
D |----------------------|-----------------------
A |-2-5--2--0-0-2--------|---2-5--2--0-0-2-------  x3
E |----------------2-2-5-|-----------------3-3-5-

(then)
E |----------------------|-----------------------
B |----------------------|-----------------------
G |----------------------|-----------------------
D |----------------------|-----------------------
A |-2-5--2--0-0-2--------|----2-5--0-2-----------
E |----------------2-2-5-|--------------3-5--0-2-

(mini-solo)

(play this at the end of the intro)

E |-7-10-7----------------------------
B |--------9--------------------------
G |----------9-7----------7---7/9-7-7-
D |--------------9-7--6-9---9---------
A |-----------------------------------
E |-----------------------------------

(verse)
(warm jazz)

E |--7----------10-/-12-/-14-\-12-\-10-/-12-\-10-\-7-
B |--7-----------------------------------------------
G |--7----------7--/-9--/-11-\-9--\-7--/ 11-\-7--\-4-
D |--7-----------------------------------------------
A |--9-----------------------------------------------
E |--7-----------------------------------------------

(chorus)
(jazz)

E |--7-------5------------------7----
B |--8-------7--------8---------7----
G |--7-------6--------6---------7----
D |--9-------7--------8---------7----
A |--7-------5--------7---------9----
E |-------------------6---------7----

(now play the intro riffs x4 followed by)

(outro for chorus)

E |--3-3--4-4--4-----------------77-7-77-7-
B |--3-3--4-4--4-----------------77-7-77-7-
G |--4-4--4-4--4-----------------77-7-77-7-
D |--4-4--4-4--4-----------------77-7-77-7-
A |--5-5--5-5--5-----------------99-9-99-9-
E |--3-3--3-3--3----2-0-2/10--9--77-7-77-7-

E |------9-7-------------------------------------------------
B |-----7--7-------------------------------------------------
G |----7---7-------------------------------------------------
D |---7----7-------------------------------------------------
A |--9-----9-------------------------------------------------
E |-7------7-------------------------------------------------
00:00 / 00:00
Otros videos de esta canción
Repetir
Otros videos de esta canción
Composición de Alex Katunich / Brandon Boyd / Gideon Koppel / Jose Antonio Pasillas II / Mike Einziger
Colaboración y revisión:
  • Magali Silva
573 exhibiciones
    • ½ Tono
    • A
    • Bb
    • B
    • C
    • Db
    • D
    • Eb
    • E
    • F
    • F#
    • G
    • Ab
  • Agregar a la lista
    00:00 / 00:00
    OK