Cifra Club

Recuerdos De Viaje Op 71 - 3 Alborada

Isaac Albeniz

Cifrado: Principal (guitarra y guitarra eléctrica)
Selo Cifra Club: esta cifra foi revisada para atender aos critérios oficiais da nossa Equipe de Qualidade.
tono: E
E||--------------|--------------|--12-9-------------|--12----------------|
B||--------------|--------------|--9----12----------|-----14-12----------|
G||--------------|--------------|-------------------|--13----------------|
D||--------------|--------------|--12---------------|--12----------------|
A||--------------|--------------|-------------------|--------------------|
E||--------------|--------------|-------------------|--------------------|

                                                                             
E|--------12-----------|--------------|--9----------------|--9----------------|
B|-----10--------------|--------------|--0--10-9----------|-----10-9----------|
G|---------------------|--------------|--10---------------|--10---------------|
D|--11-----------------|--------------|-------------------|--9----------------|
A|---------------------|--------------|-------------------|-------------------|
E|---------------------|--------------|-------------------|-------------------|

                                                                      
E|------9-----------|--------------|--9--------------|--9--------------|
B|----7-------------|--------------|----9-7----------|----9-7----------|
G|--6---------------|--------------|--9--------------|--9--------------|
D|------------------|--------------|--7--------------|--7--------------|
A|------------------|--------------|-----------------|-----------------|
E|------------------|--------------|-----------------|-----------------|


                                                                   
E|------5-9-----------|--------------|--7------------------11-19-16-|
B|----5---------------|--------------|----9-7-------7-9-10----------|
G|--------------------|--------------|--8-----8---8-----------------|
D|--7-----------------|--------------|--7-------7-------------------|
A|--------------------|--------------|------------------------------|
E|--------------------|--------------|------------------------------|


                                                           
E|--14-17----12----------------------|--0-----0-2-0---------|
B|--------14-------14----10--------9-|----------0-----2-0---|
G|--------------14----11-------9---8-|------------1---1-----|
D|--------------------------11---7---|--6-----6-----2-------|
A|-----------------------------------|--------------------2-|
E|-----------------------------------|----------------------|


                                                                              
E|----------------------0-4-|--12-9-7-----------0------------------------------|
B|--------------------0-0-5-|--9------9-----0-------0-----------------------0--|
G|--2-1-------------1-1-----|--9--------9-6-------6---1-------------------1----|
D|--2---2-4-2-4-2-4-2-------|-----------------6-6-------2---------------2------|
A|------2-2-2-2-2-2---------|-------------------7---------4-2-------2-4--------|
E|--------------------------|---------------------------------4-0-4------------|


                                                                       
E|--7-12-7-12----12----12----12----12----12----12----12----12----12-----|
B|------------12----12----12----12----12----12----12----12----12----12--|
G|--6-------------------------------------------------------------------|
D|----------------------------------------------------------------------|
A|----------------------------------------------------------------------|
E|----------------------------------------------------------------------|


                                                                         
E|--12-12----12----12----12----12----12----12----12----12----12----12-----|
B|--12----12----12----12----12----12----12----12----12----12----12----12--|
G|------------------------------------------------------------------------|
D|------------------------------------------------------------------------|
A|------------------------------------------------------------------------|
E|------------------------------------------------------------------------|


                                                                    
E|----------------|--------------|--------------|--12----------------|
B|--17------------|--------------|--------------|-----14-12----------|
G|--21------------|--------------|--------------|--13----------------|
D|--21------------|--------------|--------------|--12----------------|
A|----------------|--------------|--------------|--------------------|
E|----------------|--------------|--------------|--------------------|


                                                                                
E|--12----------------|-----------12-----------|--------------|--8---------------|
B|-----13-12----------|--------10--------------|--------------|----10-8----------|
G|--13----------------|-----11-----------------|--------------|--9---------------|
D|--12----------------|--10--------------------|--------------|--8---------------|
A|--------------------|------------------------|--------------|------------------|
E|--------------------|------------------------|--------------|------------------|


                                                                       
E|--8---------------|------8-----------|--------------|--7--------------|
B|----10-8----------|----6-------------|--------------|----9-7----------|
G|--9---------------|------------------|--------------|--8--------------|
D|--8---------------|--7---------------|--------------|--7--------------|
A|------------------|------------------|--------------|-----------------|
E|------------------|------------------|--------------|-----------------|


                                                                       
E|--7--------------|------------------|--------------|------0-----------|
B|----9-7----------|------0-----------|--------------|------------------|
G|--8--------------|------------------|--------------|----1-------------|
D|--7--------------|----2-------------|--------------|------------------|
A|-----------------|------------------|--------------|--2---------------|
E|-----------------|--4---------------|--------------|------------------|


                                                                     
E|--------------|----0-7-----------|--------------|----4-12-----------|
B|--------------|------------------|--------------|--0----------------|
G|--------------|--1---------------|--------------|-------------------|
D|--------------|------------------|--------------|-------------------|
A|--------------|------------------|--------------|-------------------|
E|--------------|------------------|--------------|-------------------|


                                                                              
E|--------------|--0--0--0--0--0--0--|--0--0--0--0--0--0--|--0--0--------------|
B|--------------|--1--1--1--1--1--1--|--1--1--1--1--1--1--|--1--1--3--3--3--3--|
G|--------------|--2--2--2--2--2--2--|--2--2--2--2--2--2--|--2--2--5--5--5--5--|
D|--------------|--2--2--2--2--2--2--|--2--2--2--2--2--2--|--2--2--7--7--7--7--|
A|--------------|--------------------|--------------------|--------5--5--5--8--|
E|--------------|--------------------|--------------------|--------------------|


                                                               
E|--------------------|--0-----------------|--------------------|
B|--0--0--0--0--0--0--|-----5--5--5--5--5--|--5--5--5--5--5--5--|
G|--7--7--7--7--8--8--|--5--5--5--5--5--5--|--5--5--5--5--5--5--|
D|--5--5--5--5--5--5--|--5--5--5--5--5--5--|--5--5--5--5--5--5--|
A|--8--8--8--8--8--8--|--7--7--7--7--7--7--|--7--7--7--7--7--7--|
E|--------------------|--------------------|--------------------|


                                                               
E|--------------------|--------------------|--2-----------------|
B|--5--5--5--5--5--5--|--0--0--0--0--0--0--|--4--4--1-----------|
G|--5--5--5--5--5--5--|--8--8--8--8--8--8--|--5--5--2--2--------|
D|--7--7--7--7--7--7--|--7--7--7--7--7--7--|--7--7--4--4--4--1--|
A|--7--7--7--7--7--7--|--6--6--6--6--6--6--|-----9--6--6--3--3--|
E|--------------------|--------------------|-----------8--5--5--|


                                                               
E|--------------------|--------------------|--------------------|
B|-----0--0--0--0--0--|--0--0--0--0--0--0--|--0--0--0--0--0--0--|
G|--------------------|--2--2--2--2--2--2--|--2--2--2--2--2--2--|
D|--1--1--2--2--2--2--|--3--3--3--3--3--3--|--3--3--3--3--3--3--|
A|--2--2--2--2--2--2--|--2--2--2--2--2--2--|--2--2--2--2--2--2--|
E|--5--5--------------|--------------------|--------------------|


                                                               
E|--------------------|--------------------|--------------------|
B|--0--0--0--0--0--0--|--0--0--0--0--0--0--|--0--0--0-----------|
G|--2--2--2--2--2--2--|--2--2--2--2--2--2--|-----------4--4--4--|
D|--3--3--3--3--3--3--|--3--3--3--3--3--3--|--4--4--4--4--4--4--|
A|--2--2--2--2--2--2--|--2--2--2--2--2--2--|--6--6--6--6--6--6--|
E|--------------------|--------------------|--5--5--5--5--5--5--|


                                                               
E|--------------------|--0--0--0--0--0--0--|--0--0--0--0--0--0--|
B|--------------------|--1--1--1--1--1--1--|--1--1--1--1--1--1--|
G|--4--4--4--4--4--4--|--2--2--2--2--2--2--|--2--2--2--2--2--2--|
D|--3--3--3--3--2--2--|--2--2--2--2--2--2--|--2--2--2--2--2--2--|
A|--5--5--5--5--5--5--|--------------------|--------------------|
E|--5--5--5--5--4--4--|--------------------|--------------------|


                                                               
E|--0--0--------------|--------------------|--0-----------------|
B|--1--1--3--3--3--3--|--0--0--0--0--0--0--|-----5--5--5--5--5--|
G|--2--2--5--5--5--5--|--7--7--7--7--8--8--|--5--5--5--5--5--5--|
D|--2--2--7--7--7--7--|--5--5--5--5--5--5--|--5--5--5--5--5--5--|
A|--------5--5--5--8--|--8--8--8--8--8--8--|--7--7--7--7--7--7--|
E|--------------------|--------------------|--------------------|


                                                               
E|--------------------|--------------------|--------------------|
B|--5--5--5--5--5--5--|--5--5--5--5--5--5--|--0--0--0--0--0--0--|
G|--5--5--5--5--5--5--|--5--5--5--5--5--5--|--8--8--8--8--8--8--|
D|--5--5--5--5--5--5--|--7--7--7--7--7--7--|--7--7--7--7--7--7--|
A|--7--7--7--7--7--7--|--7--7--7--7--7--7--|--6--6--6--6--6--6--|
E|--------------------|--------------------|--------------------|


                                                                                
E|--0-----0-2-0---------|----------------------0-4-|--------------|--------------|
B|----------0-----2-0---|--------------------0-0-5-|--------------|--------------|
G|------------1---1-----|--2-1-------------1-1-----|--------------|--------------|
D|--6-----6-----2-------|--2---2-4-2-4-2-4-2-------|--------------|--------------|
A|--7-----------------2-|------2-2-2-2-2-2---------|--------------|--------------|
E|----------------------|--------------------------|--------------|--------------|


                                                                               
E|--12----------------|--12----------------|--------12-----------|--------------|
B|-----14-12----------|-----14-12----------|-----10--------------|--------------|
G|--13----------------|--13----------------|---------------------|--------------|
D|--12----------------|--12----------------|--11-----------------|--------------|
A|--------------------|--------------------|---------------------|--------------|
E|--------------------|--------------------|---------------------|--------------|


                                                                          
E|--9----------------|--9----------------|------9-----------|--------------|
B|--0--10-9----------|-----10-9----------|----7-------------|--------------|
G|--10---------------|--10---------------|--6---------------|--------------|
D|-------------------|--9----------------|------------------|--------------|
A|-------------------|-------------------|------------------|--------------|
E|-------------------|-------------------|------------------|--------------|


      


                                                                        
E|------2-5---------2-5-10-|---13-17-----------|-----------------------------10-|
B|----3-----------3--------|-------------------|--------------------------10----|
G|--2----------------------|-------------------|-----------14----------10-------|
D|-------------------------|-------------------|--------15----------12----------|
A|-------------------------|-------------------|-----17-------------------------|
E|-------------------------|-------------------|--17----------------------------|


                                                                             
E|---13-17-----------|--------12-17-----------|--------------|------0---------|
B|-------------------|-----14-----------------|--------------|------2----0----|
G|-------------------|--14--------------------|--------------|------1---------|
D|-------------------|------------------------|--------------|------0---------|
A|-------------------|------------------------|--------------|----------------|
E|-------------------|------------------------|--------------|----------------|


                                                                         
E|--5----0-----0-----|--------12-------12-14-17-|--16--14--------0-----12-|
B|--5----12----17----|-----------------9--------|----------14----12-14----|
G|--6----13----16----|-----14----------9--11-14-|--18------14----13-------|
D|--7----12----18----|-----------------12-------|--18--16--14----12----14-|
A|-------14----17----|--16----------------------|----------16----14-16----|
E|-------------------|--------------------------|-------------------------|


                                                                              
E|----------------0---------|--5----0-----0-----|--------12-------12-14-16-19--|
B|--14--12------------------|--5----12----17----|-----------------9------------|
G|----------14--------------|--6----13----16----|-----14----------9--11-13-16--|
D|--14------14--------------|--7----12----18----|-----------------12-----------|
A|--16--14--12----11-12-9-7-|-------14----17----|--16--------------------------|
E|-------------------11-----|-------------------|------------------------------|


                                                                    
E|--16------------0--------14--|--0-------0---------|--0--------2----|
B|--21--19--------0-----15-----|--17--0---10--------|--0--------2----|
G|--18------18----16-18--------|--18--16------------|--0--------0----|
D|--18------19----18-------16--|--14------11--------|--0-------------|
A|--23--21--19----16-16-17-----|--16------12--------|----------------|
E|----------21-----------------|--------------------|----------------|


                                                   
E|--5------2--7-5------------------|-----------0----|
B|--3----3--------7----0-----------|--0-------------|
G|-------------------7-------------|--1--------1----|
D|--4--------------------7--4-0----|--0--------0----|
A|------------------------------2--|--0-------------|
E|---------------------------------|----------------|


                                                   
E|----------------0--2-0-----------|--0--------2----|
B|------------0-2--------2--0------|--0--------2----|
G|--2------2------------------2----|--0--------0----|
D|-------4----------------------2--|--0-------------|
A|--4------------------------------|--4-------------|
E|---------------------------------|----------------|


                                                   
E|--5------2--7-5------------------|-----------1----|
B|--3----3--------7----0-----------|--0--------0----|
G|-------------------7-------------|--7--------2----|
D|--4--------------------7--4-0----|--7-------------|
A|------------------------------2--|--5-------------|
E|---------------------------------|--5-------------|


                                                                             
E|--5-------------0--2-0-----------|--0-2--5-7-9--7-5-------------------------|
B|--------------2--------2--0---0--|--2---------------7--5---0----------------|
G|--6------2--4---------------2----|-----------------------6----2-------------|
D|--7----4-------------------------|------------------------------4-2---------|
A|---------------------------------|-----------------------------------4-2-0--|
E|---------------------------------|------------------------------------------|


                                                                       
E|---------------|--------------|--9----------------|--9----------------|
B|---------------|--------------|--0--10-9----------|-----10-9----------|
G|---------------|--------------|--10---------------|--10---------------|
D|---------------|--------------|-------------------|--9----------------|
A|--4------------|--------------|-------------------|-------------------|
E|--7------------|--------------|-------------------|-------------------|


                                                                            
E|------9-----------|--------------|--12----------------|--12----------------|
B|----7-------------|--------------|-----14-12----------|-----14-12----------|
G|--6---------------|--------------|--13----------------|--13----------------|
D|------------------|--------------|--12----------------|--12----------------|
A|------------------|--------------|--------------------|--------------------|
E|------------------|--------------|--------------------|--------------------|


                                                                    
E|--------12-----------|------------------------|----|----|----|----| |
B|-----10--------------|------------------------|----|----|----|----| |
G|---------------------|------------------8--9--|----|----|----|----| |
D|--11-----------------|----------10--11--------|----|----|----|----| |
A|---------------------|--11--12----------------|----|----|----|----| |
E|---------------------|------------------------|----|----|----|----| |
Otros videos de esta canción
    7 exhibiciones
      • ½ Tono
      • A
      • Bb
      • B
      • C
      • Db
      • D
      • Eb
      • E
      • F
      • F#
      • G
      • Ab
    • Agregar a la lista

    Afinación de cifrado

    Afinador online

      OK