Cifra Club

Whole Lotta Shakin' Goin' On

Jerry Lee Lewis

Chords: Principal (acoustic and electric guitars)
tone: C
Intro 2x:
  C
E|---------------------------------------
B|---------------------------------------
G|---------------------------------------
D|-5-5-7-5-5-5-7-5-5-5-7-5-5-5-7-5-------
A|-3-3-3-3-3-3-3-3-3-3-3-3-3-3-3-3-------
E|---------------------------------------

Levada Blues:
   C
E|---------------------------------------
B|---------------------------------------
G|---------------------------------------
D|-5-5-7-5-5-5-7-5-5-5-7-5-5-5-7-5------- (2x)
A|-3-3-3-3-3-3-3-3-3-3-3-3-3-3-3-3-------
E|---------------------------------------
   F
E|---------------------------------------
B|---------------------------------------
G|---------------------------------------
D|---------------------------------------
A|-3-3-5-3-3-3-5-3-3-3-5-3-3-3-5-3-------
E|-1-1-1-1-1-1-1-1-1-1-1-1-1-1-1-1-------

E|---------------------------------------
B|---------------------------------------
G|---------------------------------------
D|-5-5-7-5-5-5-7-5-5-5-7-5-5-5-7-5-------
A|-3-3-3-3-3-3-3-3-3-3-3-3-3-3-3-3-------
E|---------------------------------------
  G                F
E|---------------------------------------
B|---------------------------------------
G|---------------------------------------
D|---------------------------------------
A|-5-5-7-5-5-5-7-5-3-3-5-3-3-3-5-3-------
E|-3-3-3-3-3-3-3-3-1-1-1-1-1-1-1-1-------
   C
E|---------------------------------------
B|---------------------------------------
G|---------------------------------------
D|-5-5-7-5-5-5-7-5-5-5-7-5-5-5-7-5-------
A|-3-3-3-3-3-3-3-3-3-3-3-3-3-3-3-3-------
E|---------------------------------------

(Intro 2x)

(Levada Blues)
Come on over baby

Whole lotta shakin' goin' on

Yes I said come on over baby

Baby you can't go wrong

We ain't fakin', whole lotta shakin' goin' on

(Levada Blues)
Well I said come on over baby

We got chickin' in the barn, oooh huh

Come over baby baby

Baby got the bull by the horn

We ain't fakin' it

Whole lot of shakin' goin' on


(Levada Blues)
Well I said shake it baby shake

I said shake it Baby shake

I said shake it Baby shake it

Said shake, baby shake

Come on over

Whole lot of shakin goin' on

Ahhhhh, Let's go !!!


Solo: (Levada Blues)

             (Levada Blues)
Well I said come on over baby

We got chickin' in the barn

Whose barn what barn my barn

Come on over baby

Baby got the bull by the horn

We ain't fakin' it

Whole lot of shakin' goin' on

           (Levada Blues)
Easy Now Shake

Ahhhh, shake it babe

Yeah You can shake one time for me

Do the hula hussy

Whole lot of shakin' goin' on
                                     (Levada Blues)
Now let's get real low one time now

  (Levada Blues)
Shake it, baby, shake ...

Shake it, baby, shake ...

shake baby, come on baby shake baby shake

come on over, whole lot of shakin goin on
00:00 / 00:00
Other videos of this song
Repeat
Other videos of this song
Composed by Dave Williams / Sunny David
482 views
    • ½ Tone
    • A
    • Bb
    • B
    • C
    • Db
    • D
    • Eb
    • E
    • F
    • F#
    • G
    • Ab
  • Add to list
    00:00 / 00:00
    OK