Cifra Club

Prefiro os Tubarões

João Carreiro e Capataz

Cifrado: Versão 3 (guitarra y guitarra eléctrica)
Acompaña nuestras novedades de Cifra Club en español.
¡Sigue nuestro perfil en Instagram!
tono: G
Riff 1:
E|-------------------------------------
B|-------------------------------------
G|-------------------------------------
D|--7-7-7-7-7---5-5-5---------5-0------
A|--5-5-5-5-5---3-3-3---------3-2------
E|-------------------------------------

G5                     C5
Vai, sai daqui, sai de mim,
            D5
Não to mais afim de você
G5                          C5           D5
É, to nem aí, nem quero te ver, você merece sofrer;

G5                    C5
Vai, sai daqui, sai de mim,
            D5
Não to mais afim de você
G5                         C5          D5
É, to nem aí, nem quero te ver, você merece sofrer;

Refrão:
C           G
Quando te amei, sofri;
D           G
Você ria de mim
C          G
E como era bom pra você
C      D       G
Me ver sofrer assim

C        G
Por você chorei demais
D     G
Quase morri  (Riff 2)
C            G
O passado já deixei pra trás
C            D         G
Cai fora, eu quero ser feliz;

G5                     C5
Vai, sai daqui, sai de mim,
            D5
Não to mais afim de você
G5                          C5           D5
É, to nem aí, nem quero te ver, você merece sofrer;

G5                    C5
Vai, sai daqui, sai de mim,
            D5
Não to mais afim de você
G5                         C5          D5
É, to nem aí, nem quero te ver, você merece sofrer;
Solo:
E|--------------------------------------------------------
B|-------------------------------6-------8-10b-10~~/------
G|----4b---5b-5-4-2-3---------/7------/9------------------
D|--------------------5-----------------------------------
A|--------------------------------------------------------
E|--------------------------------------------------------

Em                          Bm
Numa ilha deserta, só eu e você,
Am               G
Prefiro os tubarões
Em                        Bm
O que você plantou vai colher
Am                          G
Pode crer, tenho as minhas razões;
   D
Acaboooooooooooooooooooouuuuuuuuuuuuuuuuuu

C           G
Quando te amei, sofri;
D           G
Você ria de mim
C          G
E como era bom pra você
D      C       G
Me ver sofrer assim

C        G
Por você chorei demais
D     G
Quase morri  (Riff 2)
C            G
O passado já deixei pra trás
D            C         G
Cai fora, eu quero ser feliz;
Riff 2:
E|-----------------------|
B|----------------8~~----|
G|----7b--7-5-6-7--------|
D|-----------------------|
A|-----------------------|
E|-----------------------|

G5                     C5
Vai, sai daqui, sai de mim,
            D5
Não to mais afim de você
G5                          C5           D5
É, to nem aí, nem quero te ver, você merece sofrer;

G5                    C5
Vai, sai daqui, sai de mim,
            D5
Não to mais afim de você
G5                         C5          D5
É, to nem aí, nem quero te ver, você merece sofrer;
G5
Vaai
Composición de Divaney / João Carreiro
Colaboración y revisión:
  • Gabriel Takahashi
1 vistas
    • ½ Tono
    • A
    • Bb
    • B
    • C
    • Db
    • D
    • Eb
    • E
    • F
    • F#
    • G
    • Ab
  • Agregar a la lista

    0 comentarios

    Ver todos los comentarios
    00:00 / 00:00
    Outros vídeos desta música
    Repetir Calidad Automático
    Outros vídeos desta música
    00:00 / 00:00
    Automático
    OK