Cifra Club

Sábado

João Carreiro e Capataz

Cifrado: Solo-de-introducao (guitarra y guitarra eléctrica)
tono: G
E|-------------------------------
B|------------3------------------
G|--0-2-4-2-4---0h2-0------------
D|---------------------2---------
A|-------------------------------
E|-------------------------------

E|-------------------------------
B|------------3-3/5-5-5/3--------
G|--0-2-4-2-4------------2/4-4\2-
D|-------------------------------
A|-------------------------------
E|-------------------------------

E|-------------------------------
B|---------5\3------3-5-3--------
G|--2-0-2--4\2--0h2--------------
D|-------------------------------
A|-------------------------------
E|-------------------------------

E|--3p2--------------------------
B|------5-3-5p3-------3----------
G|--------------4-2-4---4p2p0----
D|-------------------------------
A|-------------------------------
E|-------------------------------

Compositor não encontrado.
Colaboración y revisión:
  • Daniel Gardenghi
3 vistas
    • ½ Tono
    • A
    • Bb
    • B
    • C
    • Db
    • D
    • Eb
    • E
    • F
    • F#
    • G
    • Ab
  • Agregar a la lista

    0 comentarios

    Ver todos los comentarios
    00:00 / 00:00
    Outros vídeos desta música
    Repetir Calidad Automático
    Outros vídeos desta música
    00:00 / 00:00
    Automático
    OK