Cifra Club

Ellos dicen mierda, nosotros amen

La Polla Records

Cifrado: Principal (guitarra y guitarra eléctrica)
tono: F#
E|---------------------------------------------------------------------|
B|----------------------------------------0----------------------------|
G|--------------------------------------1---4-4------------------------|
D|-----4-4-2-1-----------------------2-----4-4---4-4-4-4-4-4-4-4-------|
A|-2-----------2---4-4-2-1------2--------2-2---4-4-4-4-4-4-4-4---------|
E|---------------2-----------2-0-----------------2-2-2-2-2-2-2-2-------|

E|-------------------------------------------0| —0-0--------------1-1-1-1-1
B|----------------------------------------0---0| —0—0-4-4-4-4--------------
G|--------------------------------------1--------------------------------|
D|----4-4-2-1-----------------------2------------------------------------|
A|-2-----------2---4-4-2-1------2----------------------------------------|
E|---------------2-----------2-0-----------------------------------------|


Aki llega el primer solo de la kanzion:

E|-----------------------------------------------------------0---------|
B|-4-2-0-4-2-0-2-4-2-2-4-5-4--2-0-2-----0-0-------0| —4-0-2--------------
G|-----------------------------------------3-3-----1| —1-----------------
D|---------------------------------------------------------------------|
A|---------------------------------------------------------------------|
E|---------------------------------------------------------------------|

E|------------|
B|-2-2-2-2---|
G|------------|
D|------------|
A|------------|
E|------------|

E|------------------------------------------------------------------|
B|-4-4-4-4-4-4-2-2-4-4-4-4-4-4-0-0-2-2-2-2-2-2-0-0-2-2--------------|
G|------------------------------------------------------------------|
D|------------------------------------------------------------------|
A|------------------------------------------------------------------|
E|------------------------------------------------------------------|

E|--------------------------0----------|
B|-2-2-2-----0-0-----0| —4-0-2-2--------
G|----------3-3------1-1---------------|
D|-------------------------------------|
A|-------------------------------------|
E|-------------------------------------|




Luego sigue la kanzion kon el punteo principal

Y luego biene el segundo solo:

E|------------------------------------------------------------------|
B|------------------------------------------------------------------|
G|-------------------------------4-6-6-6-6-6-4-6-6-9-9-9-8-6--------|
D|-4-4-6-6-4-4-6-6-4-4-4-6------------------------------------------|
A|------------------------------------------------------------------|
E|------------------------------------------------------------------|

E|--------------------------------|
B|--------------------------------|
G|-9-9-9-8-6-8-8-8-6---6-8-6------|
D|-----------------------9--------|
A|--------------------------------|
E|--------------------------------|

E|-------------------------------7-9-9-9-9-9-7-9-9----------------12----|
B|-7-7-9-9-7-7-9-9-7-7-7-9----------------------12-12-9-----9-----------|
G|--------------------------------------------------------------9-9-----|
D|----------------------------------------------------------------------|
A|----------------------------------------------------------------------|
E|----------------------------------------------------------------------|

E|------------------------------|
B|-12---------------------------|
G|-----9---8-11-8---------------|
D|------9--------------7-7-7----|
A|------------------8-8---------|
E|------------------------------|
00:00 / 00:00
Otros videos de esta canción
Repetir
Otros videos de esta canción
Compositor no encontrado.
78 vistas
    • ½ Tono
    • A
    • Bb
    • B
    • C
    • Db
    • D
    • Eb
    • E
    • F
    • F#
    • G
    • Ab
  • Agregar a la lista

    0 comentarios

    Ver todos los comentarios

    ¿Lograste tocar?

    0 Tocaron 0 Aún no

    ¡Graba un video tocando Ellos dicen mierda, nosotros amen y envíanoslo!

    00:00 / 00:00
    OK