Cifra Club

Come se non fosse stato mai amore

Laura Pausini

Cifrado: Versão 2 (guitarra y guitarra eléctrica)
tono: G
Come se non fosse stato mai amore
 
 Eu acocelho a fazer essa introdução com 2 violões, um fazendo a base normal (Em Bm) e o outro fazendo o que está seguir: 

 Intro:

   Em          Bm              Em          Bm   
e|----0-0-2-2-----0-0-2-2-2-2-----0-0-2-2-----0-0-2-2-2-2-----|
B|----0-0-2-3-----0-0-3-5-3-2-----0-0-2-3-----0-0-3-3-3-3-----|
G|----0-0-4-4-----0-0-4-4-4-4-----0-0-4-4-----0-0-4-4-4-4-----|2X
D|----2-2-4-4-----2-2-4-4-4-4-----2-2-4-4-----2-2-4-4-4-4-----|
A|----2-2-2-2-----2-2-2-2-2-2-----2-2-2-2-----2-2-2-2-2-2-----|
E|-0--0-0------0--0-0----------0--0-0------0--0-0-------------|
 Fim da introdução.

 Em              Bm
 Ieri ho capito che 

 (lick 1)
e|---0-0-2-2-----0-0-2-2-2-2--|
B|---0-0-2-3-----0-0-3-5-3-2--|
G|---0-0-4-4-----0-0-4-4-4-4--|
D|---2-2-4-4-----2-2-4-4-4-4--|
A|---2-2-2-2-----2-2-2-2-2-2--|
E|-0-0-0------0--0-0----------|


   Em                         Bm
 E´ da oggi che comincio senza te

e|---0-0-2-2-----0-0-2-2-2-2--|
B|---0-0-2-3-----0-0-3-5-3-2--|
G|---0-0-4-4-----0-0-4-4-4-4--|
D|---2-2-4-4-----2-2-4-4-4-4--|
A|---2-2-2-2-----2-2-2-2-2-2--|
E|-0-0-0------0--0-0----------|


   Em              Bm
 E tu.. l´aria assente 

e|---0-0-2-2-----0-0-2-2-2-2--|
B|---0-0-2-3-----0-0-3-5-3-2--|
G|---0-0-4-4-----0-0-4-4-4-4--|
D|---2-2-4-4-----2-2-4-4-4-4--|
A|---2-2-2-2-----2-2-2-2-2-2--|
E|-0-0-0------0--0-0----------|


      Em                        Bm
Quasi come se io fossi trasparente 

e|---0-0-2-2-----0-0-2-2--|
B|---0-0-2-3-----0-0-3-3--|
G|---0-0-4-4-----0-0-4-4--|
D|---2-2-4-4-----2-2-4-4--|
A|---2-2-2-2-----2-2-2-2--|
E|-0-0-0------0--0-0------|


    B5             A5
E vorrei fuggire via 
e|-------------------------------|
B|-------------------------------|
G|-------------------------------|
D|-5--------------2--------------|
A|-2--------------0--------------|
E|-------------------------------|
                                    Neste trecho use uma distorção
                                   bem leve e deixe soar as notas.
       G5                  A5        
e nascondermi da tutto questo 
e|--------------------------------|
B|--------------------------------|
G|--------------------------------|
D|--------------------------------|
A|-----6------------------7-------|
E|-----3------------------5-------|


Em                 C
Ma resto immobile qui 
          D           G         D         Em
Senza parlare...non ci riesco a staccarmi da te 
        C           D               G         D
E cancellare tutte le pagine con la tua immagine 
Em    C
E vivere.. 
   D                    F#
Come se non fosse stato mai amore 
e|----------------------7H--------| Nesta parte encoste seu dedo nas cordas
B|----------------------7H--------|em cima do traste sete dando uma palhe_
G|----------------------7H--------|tada de baixo pra cima fazendo assim 
D|--------------------------------|um harmônico natural. 
A|--------------------------------|
E|--------------------------------|
 

(Fazer com lick 1)
Em           Bm
Io sopravviverò 
   Em                   Bm
Adesso ancora come non lo so 
  Em                           Bm
Il tempo qualche volta può aiutare 
 Em              Bm
A sentirsi meno male...
e|--------------------------------|  Aqui já podemos usar uma distorção 
B|--------------------------------| mais pesada.
G|--------------------------------|
D|--------------\4-4-x-4-4--------|
A|--------------\2-2-x-2-2--------|
E|--------------------------------|


  B5              A5
  A poter dimenticare
e|-------------------------------|
B|-------------------------------|
G|-------------------------------|Deixe soar cada nota.
D|-5--------------2--------------|
A|-2--------------0--------------|
E|-------------------------------|

 
    G5                A5
  ma adesso è troppo presto
e|--------------------------------|
B|--------------------------------|
G|--------------------------------|
D|--------------------------------|
A|-----6------------------7-------|
E|-----3------------------5-------|


  Em            C
E resto immobile qui 
          D          G       D           Em
Senza parlare... non ci riesco a stancarmi di te 
         C         D           G            D
E cancellare tutte le pagine con la tua immagine 
Em     C
E vivere.. 
   D                    F#
come se non fosse stato mai amore 
e|--------------------------------|
B|--------------------------------|
G|--------------------------------|Sempre palhetando para baixo
D|-7-7-7-7-7-7--------------------|
A|-5-5-5-5-5-5---4-4-4-4-4-4------|
E|---------------2-2-2-2-2-2------|

Em  Bm  Em  Bm

    Em                        Bm
.. come se non fosse stato amore 
  Em                    Gm
come se non fosse stato mai..
        B5              A5      G5
.. e vorrei fuggire via, vorrei nascondermi
e|--------------------------------|
B|--------------------------------|
G|--------------------------------| Não deixe soar
D|-4-4------2-2-------------------|
A|-2-2------0-0------5-5----------|
E|-------------------3-3----------|
 


 (Nesta parte toque dedilhando até "¨non te ne andare”).
Em                    C            D           G
Ma resto ancora così, senza parlare, senza dirti 
   D           Em
¨non te ne andare¨ 
              C              D
Non mi lasciare tra queste pagine.. 


Em  C  D


G               D           Em     C          
.. e poi, e poi, e poi vivere 
D                      F#
come se non fosse stato mai amore
e|----------------------7H--------|
B|----------------------7H--------|
G|----------------------7H--------|
D|--------------------------------|
A|--------------------------------|
E|--------------------------------|

(lick 1)

   Em         Bm
e|---0-0-2-2-----0-0-2-2-2-2--|
B|---0-0-2-3-----0-0-3-5-3-2--|
G|---0-0-4-4-----0-0-4-4-4-4--|
D|---2-2-4-4-----2-2-4-4-4-4--|
A|---2-2-2-2-----2-2-2-2-2-2--|
E|-0-0-0------0--0-0----------|

   Em                        Bm
.. come se non fosse stato amore
00:00 / 00:00
Otros videos de esta canción
Repetir
Otros videos de esta canción
Composición de Cheope / Daniel Vuletic / Laura Pausini
Colaboración y revisión:
  • Diego Arias
7 vistas
    • ½ Tono
    • A
    • Bb
    • B
    • C
    • Db
    • D
    • Eb
    • E
    • F
    • F#
    • G
    • Ab
  • Agregar a la lista

    0 comentarios

    Ver todos los comentarios

    ¿Lograste tocar?

    0 Tocaron 0 Aún no

    ¡Graba un video tocando Come se non fosse stato mai amore y envíanoslo!

    00:00 / 00:00
    OK