Cifra Club

River Runs Red

Life Of Agony

Cifrado: Principal (guitarra y guitarra eléctrica)
Selo Cifra Club: esta cifra foi revisada para atender aos critérios oficiais da nossa Equipe de Qualidade.
tono: D
6=D     3=F
5=G     2=A
4=C     1=D

     VERSE 1                 4 TIMES    2
D:||----------------|----------------||-----------------|-----------------|
A:||----------------|----------------||-----------------|-----------------|
F:||*---------------|---------------*||-5-5-5-5-5-5-5-5-|-----------------|
C:||*2--------------|-7-------------*||-5-5-5-5-5-5-5-5-|-5-5-5-5-5-5-5-5-|
G:||-2--------------|-7--------------||-3-3-3-3-3-3-3-3-|-5-5-5-5-5-5-5-5-|
D:||-0--------------|-5--------------||-3-3-3-3-3-3-3-3-|-3-3-3-3-3-3-3-3-|
    1
E|---------------------------------|---------------------------------|
B|---------------------------------|---------------------------------|
G|---------------------------------|---------------------------------|
D|-3-------2-------3-----2---2-----|-3-------2-------3-----2---2-----|
A|-3---2-2-2---2-2-3-----2---2-----|-3---2-2-2---2-2-3-----2---2-----|
E|-1^0-0-0-0---0-0-1^0-0-0---0---0-|-1^0-0-0-0---0-0-1^0-0-0---0---0-|
        . .     . .     .         .       . .     . .     .         . 

    CHORUS                           
E|---------------------------------|---------------------------------|
B|---------------------------------|---------------------------------|
G|---------------------------------|---------------------------------|
D|-5--------5-5-5/7-7-------7-7-7--|-7-7-7-7-7-7-2-------------------|
A|-5--------5-5-5/7-7-------7-7-7--|-5-5-5-5-5-5-2-------------------|
E|-3--------3-3-3/5-5-------5-5-5--|-------------0-------------------|
                                      . . . . . .                                                          

    VERSE 2
E|----------------------------|----------------------------|
B|----------------------------|----------------------------|
G|----------------------------|----------------------------|
D|-2--------2/3-------3-------|-2--------2/3-------3--2----|
A|-2----2-2-2/3-------3---2-2-|-2----2-2-2/3-------3--2----|
E|-0----0-0-0^1----0--1---0-0-|-0----0-0-0^1----0--1--0----|
         . .        .      . .        . .        .
E|----------------------------|---------------------------------|
B|----------------------------|---------------------------------|
G|----------------------------|---------------------------------|
D|-2--------2/3-------3-------|-4-------4-------4---------------|
A|-2----2-2-2/3-------3---4-4-|-4---4-4-4---4-4-4---4-4-4-4-4-4-|
E|-0----0-0-0^1----0--1---2-2-|-2---2-2-2---2-2-2---2-2-2-2-2-2-|
         . .        .      . .       . .     . .     . . . . . .
D:||----------------------------|----------------------------|
A:||----------------------------|----------------------------|
F:||*---------------------------|----------------------------|
C:||*2--------2/3-------3-------|-2--------2/3-------3-------|
G:||-2----2-2-2/3-------3---2-2-|-2----2-2-2/3-------3---2-2-|
D:||-0----0-0-0^1----0--1---0-0-|-0----0-0-0^1----0--1---0-0-|
          . .        .      . .        . .        .      . .   
                                                          2 TIMES
E|----------------------------|---------------------------------| |
B|----------------------------|---------------------------------| |
G|----------------------------|--------------------------------*| |
D|-2--------2/3-------3-------|-3-------2-------3-----3---3----*| |
A|-2----2-2-2/3-------3---2-2-|-3---2-2-2---2-2-3-----3---3-----| |
E|-0----0-0-0^1----0--1---0-0-|-1^0-0-0-0---0-0-1^0-0-1^0-1^0-0-| |
          . .        .      . .       . .     . .     .         .
 
    CHORUS 2                            
E|----------------------------------|---------------------------------|
B|----------------------------------|---------------------------------|
G|----------------------------------|---------------------------------|
D|-5--------5-5-5/7-7--------7-7-7--|-3-------2-------3-----3---3-----|
A|-5--------5-5-5/7-7--------7-7-7--|-3---2-2-2---2-2-3-----3---3-----|
E|-3--------3-3-3/5-5--------5-5-5--|-1^0-0-0-0---0-0-1^0-0-1^0-1^0-0-|
                                           . .     . .     .         . 
E|----------------------------------|---------------------------------|
B|----------------------------------|---------------------------------|
G|----------------------------------|---------------------------------|
D|-5--------5-5-5/7-7--------7-7-7--|-7-7-7-7-7-7-2-------------------|
A|-5--------5-5-5/7-7--------7-7-7--|-5-5-5-5-5-5-2-------------------|
E|-3--------3-3-3/5-5--------5-5-5--|-------------0-------------------|
                                       . . . . . .

    G  O W/WHA (RHYTHM BARS 1,1,2,1,1)
D|---(b| end note)---------------------------------------|
A:|-11-(11)-(11)-11-(11)-(11)-11-(11)-(11)-11-(11)-(11)-|
E|-----------------------------------------------------|
B|-----------------------------------------------------|
G|-----------------------------------------------------|
D|-----------------------------------------------------|

D|---(b| end note)---------------------------------------|
A:|-13-(13)-(13)-13-(13)-(13)-13-(13)-(13)-13-(13)-(13)-|
E|-----------------------------------------------------|
B|-----------------------------------------------------|
G|-----------------------------------------------------|
D|-----------------------------------------------------|

E|---(b| end both notes)--|----------------------|----------------------|
B|-13-------------------|----------------------|----------------------|
G|-13-------------------|-/13----12------------|-/13----12------------|
D|----------------------|----------------------|----------------------|
A|----------------------|----------------------|----------------------|
E|----------------------|----------------------|----------------------|

    CHORUS 3                            
E|----------------------------------|---------------------------------|
B|----------------------------------|---------------------------------|
G|----------------------------------|---------------------------------|
D|-5--------5-5-5/7-7--------7-7-7--|-3-------2-------3-----2---2-----|
A|-5--------5-5-5/7-7--------7-7-7--|-3---2-2-2---2-2-3-----2---2-----|
E|-3--------3-3-3/5-5--------5-5-5--|-1^0-0-0-0---0-0-1^0-0-0---0---0-|
                                           . .     . .     .         . 
E|----------------------------------|---------------------------------|
B|----------------------------------|---------------------------------|
G|----------------------------------|---------------------------------|
D|-5--------5-5-5/7-7--------7-7-7--|-7-7-7-7-7-7-2-----------------2-|
A|-5--------5-5-5/7-7--------7-7-7--|-5-5-5-5-5-5-2-----------------2-|
E|-3--------3-3-3/5-5--------5-5-5--|-------------0-----------------0-|
                                       . . . . . . 
Otros videos de esta canción
    5 exhibiciones
      • ½ Tono
      • A
      • Bb
      • B
      • C
      • Db
      • D
      • Eb
      • E
      • F
      • F#
      • G
      • Ab
    • Agregar a la lista

    Afinação da cifra

    Afinador online

      Ops (: Contenido disponible solo en portugués.
      OK