Cifra Club

What a Wonderful World

Louis Armstrong

Cifrado: Principal (guitarra y guitarra eléctrica)
tono: C
Verso 1:
                                        I see trees ...
E|-------------------------|---------------------------||
B|-------------------------|---------------------------||
G|-------------------------|-----------------------1---||
D|-------------------------|-------------------2-------||
A|-------------------------|---------------------------||
E|-------------------------|---------------------------||

     ...of green...
E|----------------0-------------|
B|------------2---2-------------|
G|-2--------------1-------------|
D|------------------------------|
A|------------------------------|
E|------------------------------|

   red roses too                  I see them bloom,
E|-----2---2---2---0-----------|-----------------------------|
B|---------3-------2-----------|-0---3---3---3---2-----------|
G|-----------------1-----------|-2---------------2-----------|
D|-0---------------------------|-0---------------------------|
A|-----------------------------|-----------------------------|
E|-----------------------------|-----------------------------|

  for me and you,       And I ...
E|--------------------------------|
B|-0---0---0---0------------------|
G|-1---------------2-----2---2----|
D|-3---------------4--------------|
A|--------------------------------|
E|--------------------------------|

...think to myself,
E|---------------------------|
B|---------------------------|
G|-2-----2---2---2-----------|
D|-3-------------------------|
A|---------------------------|
E|---------------------------|

    What  a  wonderful  world.
E|-0-------------------------|-------0-----1-----1-----|
B|-0---------------------0---|-2-----2-----------2-----|
G|-2-----2---2---1---2-------|-------2-----------2-----|
D|---------------------------|-------------------------|
A|---------------------------|-------------------------|
E|---------------------------|-------------------------|

verso 2..........

                       I see skies        of blue          and
E|-2-----2---2---0-------------||----------------0----------0---|
B|-0-----0---0---0-------------||------------2---2--------------|
G|-2-----2---2---1---------1---||-2--------------1--------------|
D|---------------------2-------||-------------------------------|
A|-----------------------------||-------------------------------|
E|-----------------------------||-------------------------------|

  clouds    of white,       The...
E|-2----------2---0----------0-----|
B|-3--------------2----------------|
G|-2--------------1----------------|
D|---------------------------------|
A|---------------------------------|
E|---------------------------------|

 bright blessed day,       the...
E|------------------------------|
B|-3-----3---3---2----------2---|
G|---------------2--------------|
D|------------------------------|
A|------------------------------|
E|------------------------------|

dark sacred night,    And I think to myself,
E|-----------------------------|---------------------------|
B|-0-----0---0-----------------|---------------------------|
G|-1-------------2-----2---2---|-2-----2---2---2-----------|
D|-3-------------4-------------|-3-------------------------|
A|-----------------------------|---------------------------|
E|-----------------------------|---------------------------|

        what a wonderful world
E|-0-------------------------|-------0-----2-----2-----|
B|-0---------------------0---|-------2-----3-----3-----|
G|-2-----2---2---1---2-------|-2-----2-----2-----2-----|
D|---------------------------|-------------------------|
A|---------------------------|-------------------------|
E|---------------------------|-------------------------|

E|-0-------------------------||
B|-2-------------------------||
G|-2------------------2------||
D|---------------------------||
A|---------------------------||
E|---------------------------||

Ponte:
  The colors of the rainbow,           so pretty in the sky
E|---------------------------------|--------------------------------|
B|-0---0---0---0---0---------------|-3---2---2---0---2--------------|
G|-1-------------------------------|----------------------------2---|
D|---------------------2-------2---|--------------------------------|
A|---------------------------------|--------------------------------|
E|---------------------------------|--------------------------------|

  Are also on the faces         of...
E|------------------------------------|
B|-0---0---0---0---0-----------0------|
G|-1----------------------------------|
D|---------------------2--------------|
A|------------------------------------|
E|------------------------------------|

   people goin' by       I see...
E|---------------------------0---|
B|-3---2---2---0---2-----2-------|
G|-------------------------------|
D|-------------------------------|
A|-------------------------------|
E|-------------------------------|

friends shaking hands, saying,  How do you do?
E|-2-----2---2---0---------0---|-2-----2---2---0-------------|
B|---------------------2-------|-----------------------------|
G|-----------------------------|-----------------------------|
D|-----------------------------|-----------------------------|
A|-----------------------------|-----------------------------|
E|-----------------------------|-----------------------------|

    They're really saying,           I   love    you. 
E|-2---2---2---2---0---0----------|-----------------------------|
B|-2------------------------------|-3-----2-----0---------------|
G|-2------------------------------|-----------------------------|
D|--------------------------------|-----------------------------|
A|--------------------------------|-----------------------------|
E|--------------------------------|-----------------------------|

Verso 3
            I hear babies cry,
E|--------------||----------------0----------0---|
B|--------------||------------2---2--------------|
G|----------1---||-2--------------1--------------|
D|------2-------||-------------------------------|
A|--------------||-------------------------------|
E|--------------||-------------------------------|

  I watch them grow        They'll
E|-2----------2---0----------0-----|
B|-3--------------2----------------|
G|-2--------------1----------------|
D|---------------------------------|
A|---------------------------------|
E|---------------------------------|

 learn much more        than
E|------------------------------|
B|-3-----3---3---2----------2---|
G|---------------2--------------|
D|------------------------------|
A|------------------------------|
E|------------------------------|

  I'll ever know,      And I think to myself,
E|-----------------------------|---------------------------|
B|-0-----0---0-----------------|---------------------------|
G|-1-------------2-----2---2---|-2-----2---2---2-----------|
D|-3-------------4-------------|-3-------------------------|
A|-----------------------------|---------------------------|
E|-----------------------------|---------------------------|

        what a wonderful world.
E|-0-------------------------|-------0-----0-----0-----|
B|-0---------------------0---|--2----2-----2-----2-----|
G|-2-----2---2---1---2-------|-------2-----0-----0-----|
D|---------------------------|-------------------------|
A|---------------------------|-------------------------|
E|---------------------------|-------------------------|

               And I think to myself,
E|-------------------------|-------------------2------|
B|-2-----------2-----2-----|-2-------0---------0------|
G|-3-----------------------|-----2-------2-----2------|
D|-------------------------|--------------------------|
A|-------------------------|--------------------------|
E|-------------------------|--------------------------|

      what a wonderful world
E|-0--------------|-----0------2--|-^0----------------------------|
B|-0-----------0--|-----2------3--|-^2----------------------------|
G|-2---2-2-1-2----|--2--2---2--2--|-^2----------------------------|
D|----------------|---------------|-^2----------------------------|
A|----------------|---------------|-^0----------------------------|
E|----------------|---------------|-------------------------------|
00:00 / 00:00
Otros videos de esta canción
Repetir
Otros videos de esta canción
Composición de Bob Thiele / George David Weiss / George Douglas
Colaboración y revisión:
  • giovani haruo
635 vistas
    • ½ Tono
    • A
    • Bb
    • B
    • C
    • Db
    • D
    • Eb
    • E
    • F
    • F#
    • G
    • Ab
  • Agregar a la lista

    0 comentarios

    Ver todos los comentarios

    ¿Lograste tocar?

    1 Tocaron 0 Aún no

    ¡Graba un video tocando What a Wonderful World y envíanoslo!

    00:00 / 00:00
    OK