Cifra Club

Aprenda

Simplezin de Tudo (part. Henrique e Juliano)

Maiara e Maraisa

Tablatura: Principal (guitarra)
tono: B (con acordes en la forma de G) Capotraste na 4ª casa
[Intro] G  D  Am  C 

E|--------------3/10-3/10-------------------|
B|------------------------------------------|
G|------------------------------------------|
D|-0h2p0------------------------------------|
A|-------2p0--------------------------------|
E|-----------3------------------------------|

E|------------------------------------------|
B|------------------------------------------|
G|------------------------------------------|
D|-2h4-4-4-4-0-2/4-0-0h2--------------------|
A|------------------------0h2-3~------------|
E|------------------------------------------|

[Primeira Parte]

 G     D   
Lembra
                       Am7   C  
Até seu carro eu empurrava
                      G            
E no boteco eu que pagava pra você
D                       C    
   Da sua vida dura eu nunca reclamei
F#m 
    Porém sempre te amei

G            
  Cê juntando moeda um ano
     D 
Só pra me levar num motel
Am7   
    Era o quarto mais simples
             C 
Mas mesmo assim me levava pro céu

[Pré-Refrão]

G                         D 
  Dia dos namorados me levou pra jantar fora
    Am7                     C 
Um combo de coxinha e coca-cola

[Refrão]

                     G
É simplezin de tudo nosso amor
        D 
E você me ganhou

Sem luxo
 Am7                        C 
Só colchão no chão, ventilador
   
                     G
É simplezin de tudo nosso amor
               D 
Fica na minha vida
           Am7  
Só dá nós dois cachorro quente
           C 
Ali na esquina

                     G
É simplezin de tudo nosso amor
        D 
E você me ganhou

Sem luxo
 Am7                        C 
Só colchão no chão, ventilador
   
                     G
É simplezin de tudo nosso amor
               D 
Fica na minha vida
           Am7  
Só dá nós dois cachorro quente
           C 
Ali na esquina

[Solo] G  D  Am7  C  

E|-5/7-7-7-7-3-5--5/7-7-7-7-3-5-5/7-5-------|
B|------------------------------------------|
G|-2/4-4-4-4-0-2--2/4-4-4-4-0-2-2/4-2-------|
D|------------------------------------------|
A|------------------------------------------|
E|------------------------------------------|

E|-5/7-7-7-7-7-5-5/7-3----------------------|
B|------------------------------------------|
G|-2/4-4-4-4-4-2-2/4-0----------------------|
D|------------------------------------------|
A|------------------------------------------|
E|------------------------------------------|

[Primeira Parte]

G            
  Cê juntando moeda um ano
     D 
Só pra me levar num motel
Am7   
    Era o quarto mais simples
             C 
Mas mesmo assim me levava pro céu

[Pré-Refrão]

G                         D 
  Dia dos namorados me levou pra jantar fora
    Am7                     C 
Um combo de coxinha e coca-cola

[Refrão]

                     G
É simplezin de tudo nosso amor
        D 
E você me ganhou

Sem luxo
 Am7                        C 
Só colchão no chão, ventilador
   
                     G
É simplezin de tudo nosso amor
               D 
Fica na minha vida
           Am7  
Só dá nós dois cachorro quente
           C 
Ali na esquina

                     G
É simplezin de tudo nosso amor
        D 
E você me ganhou

Sem luxo
 Am7                        C 
Só colchão no chão, ventilador
   
                     G
É simplezin de tudo nosso amor
               D 
Fica na minha vida
           Am7  
Só dá nós dois cachorro quente
           C 
Ali na esquina

[Final] G  D  Am7  C  G 

E|-5/7-7-7-7-3-5--5/7-7-7-7-3-5-5/7-5-------|
B|------------------------------------------|
G|-2/4-4-4-4-0-2--2/4-4-4-4-0-2-2/4-2-------|
D|------------------------------------------|
A|------------------------------------------|
E|------------------------------------------|

E|-5/7-7-7-7-7-5-5/7-3----------------------|
B|------------------------------------------|
G|-2/4-4-4-4-4-2-2/4-0----------------------|
D|------------------------------------------|
A|------------------------------------------|
E|------------------------------------------|
Composição de Matheus Marcolino
Colaboración y revision:
  • Thiago Almeida
  • Adriele Souza
32 reproducciones
    • ½ Tono
    • A
    • Bb
    • B
    • C
    • Db
    • D
    • Eb
    • E
    • F
    • F#
    • G
    • Ab
  • Adicionar à lista

    0 comentarios

    Ver todos os comentários

    ¿Conseguiste tocar?

    0 Tocaram 0 Ainda não

    Grave um vídeo tocando Simplezin de Tudo (part. Henrique e Juliano) e nos envie!

    00:00 / 00:00
    outros vídeos desta música
    repetir qualidade Automático
    Outros vídeos desta música
    00:00 / 00:00
    Automático
    OK